0
SECTION
2
HEADER
9
$ACADVER
1
AC1009
9
$TEXTSTYLE
7
STANDARD
9
$CECOLOR
62
256
9
$AUNITS
70
0
9
$LUNITS
70
3
9
$EXTMIN
10
395.3000000
20
759.7500000
9
$EXTMAX
10
635.7500000
20
871.8135400
9
$FILLMODE
70
1
0
ENDSEC
0
SECTION
2
TABLES
0
TABLE
2
LAYER
70
4
0
LAYER
2
Board
70
64
62
3
6
CONTINUOUS
0
LAYER
2
Top_Mask
70
64
62
4
6
CONTINUOUS
0
LAYER
2
Top_Silk
70
64
62
6
6
CONTINUOUS
0
LAYER
2
Top_Paste
70
64
62
8
6
CONTINUOUS
0
LAYER
2
Drill_Layer
70
64
62
255
6
CONTINUOUS
0
ENDTAB
0
ENDSEC
0
SECTION
2
BLOCKS
0
BLOCK
2
UNIT_DISC
8
0
70
0
10
0.0000000
20
0.0000000
0
POLYLINE
8
0
6
CONTINUOUS
66
1
70
1
40
0.5000000
41
0.5000000
0
VERTEX
8
0
10
0.2500000
20
0.0000000
42
1.0000000
0
VERTEX
8
0
10
-0.2500000
20
0.0000000
42
1.0000000
0
SEQEND
0
ENDBLK
0
BLOCK
2
UNIT_CIRCLE
8
0
70
0
10
0.0000000
20
0.0000000
0
CIRCLE
8
0
6
CONTINUOUS
10
0.0000000
20
0.0000000
40
0.5000000
0
ENDBLK
0
BLOCK
2
SHAPE_EL_478_478_0_0_0_0
8
0
70
0
10
0.0000000
20
0.0000000
0
INSERT
8
0
2
UNIT_CIRCLE
10
0.0000000
20
0.0000000
41
1.2160000
42
1.2160000
43
1.2160000
50
0.0000000
0
ENDBLK
0
BLOCK
2
SHAPE_EL_669_669_0_0_0_0
8
0
70
0
10
0.0000000
20
0.0000000
0
INSERT
8
0
2
UNIT_CIRCLE
10
0.0000000
20
0.0000000
41
1.7000000
42
1.7000000
43
1.7000000
50
0.0000000
0
ENDBLK
0
BLOCK
2
SHAPE_EL_2440_2440_0_0_0_0
8
0
70
0
10
0.0000000
20
0.0000000
0
INSERT
8
0
2
UNIT_CIRCLE
10
0.0000000
20
0.0000000
41
6.2000000
42
6.2000000
43
6.2000000
50
0.0000000
0
ENDBLK
0
BLOCK
2
SHAPE_EL_905_905_0_0_0_0
8
0
70
0
10
0.0000000
20
0.0000000
0
INSERT
8
0
2
UNIT_CIRCLE
10
0.0000000
20
0.0000000
41
2.3000000
42
2.3000000
43
2.3000000
50
0.0000000
0
ENDBLK
0
BLOCK
2
SHAPE_EL_1259_1259_0_0_0_0
8
0
70
0
10
0.0000000
20
0.0000000
0
INSERT
8
0
2
UNIT_CIRCLE
10
0.0000000
20
0.0000000
41
3.2000000
42
3.2000000
43
3.2000000
50
0.0000000
0
ENDBLK
0
BLOCK
2
SHAPE_SQ_905_905_0_0_0_0
8
0
70
0
10
0.0000000
20
0.0000000
0
LINE
8
0
6
CONTINUOUS
10
-1.1500000
20
-1.1500000
11
1.1500000
21
-1.1500000
0
LINE
8
0
6
CONTINUOUS
10
1.1500000
20
-1.1500000
11
1.1500000
21
1.1500000
0
LINE
8
0
6
CONTINUOUS
10
1.1500000
20
1.1500000
11
-1.1500000
21
1.1500000
0
LINE
8
0
6
CONTINUOUS
10
-1.1500000
20
1.1500000
11
-1.1500000
21
-1.1500000
0
ENDBLK
0
BLOCK
2
SHAPE_EL_787_787_0_0_0_0
8
0
70
0
10
0.0000000
20
0.0000000
0
INSERT
8
0
2
UNIT_CIRCLE
10
0.0000000
20
0.0000000
41
2.0000000
42
2.0000000
43
2.0000000
50
0.0000000
0
ENDBLK
0
BLOCK
2
SHAPE_SQ_787_787_0_0_0_0
8
0
70
0
10
0.0000000
20
0.0000000
0
LINE
8
0
6
CONTINUOUS
10
-1.0000000
20
-1.0000000
11
1.0000000
21
-1.0000000
0
LINE
8
0
6
CONTINUOUS
10
1.0000000
20
-1.0000000
11
1.0000000
21
1.0000000
0
LINE
8
0
6
CONTINUOUS
10
1.0000000
20
1.0000000
11
-1.0000000
21
1.0000000
0
LINE
8
0
6
CONTINUOUS
10
-1.0000000
20
1.0000000
11
-1.0000000
21
-1.0000000
0
ENDBLK
0
BLOCK
2
SHAPE_EL_1141_1141_0_0_0_0
8
0
70
0
10
0.0000000
20
0.0000000
0
INSERT
8
0
2
UNIT_CIRCLE
10
0.0000000
20
0.0000000
41
2.9000000
42
2.9000000
43
2.9000000
50
0.0000000
0
ENDBLK
0
BLOCK
2
SHAPE_EL_1496_1496_0_0_0_0
8
0
70
0
10
0.0000000
20
0.0000000
0
INSERT
8
0
2
UNIT_CIRCLE
10
0.0000000
20
0.0000000
41
3.8000000
42
3.8000000
43
3.8000000
50
0.0000000
0
ENDBLK
0
BLOCK
2
SHAPE_EL_708_708_0_0_0_0
8
0
70
0
10
0.0000000
20
0.0000000
0
INSERT
8
0
2
UNIT_CIRCLE
10
0.0000000
20
0.0000000
41
1.8000000
42
1.8000000
43
1.8000000
50
0.0000000
0
ENDBLK
0
BLOCK
2
_Default_via1
8
0
70
0
10
0.0000000
20
0.0000000
0
INSERT
8
Top_Mask
2
SHAPE_EL_478_478_0_0_0_0
10
0.0000000
20
0.0000000
41
1.0000000
42
1.0000000
43
1.0000000
50
0.0000000
0
ENDBLK
0
BLOCK
2
_Default_via11
8
0
70
0
10
0.0000000
20
0.0000000
0
INSERT
8
Top_Mask
2
SHAPE_EL_478_478_0_0_0_0
10
0.0000000
20
0.0000000
41
1.0000000
42
1.0000000
43
1.0000000
50
0.0000000
0
ENDBLK
0
BLOCK
2
_Default_via14
8
0
70
0
10
0.0000000
20
0.0000000
0
INSERT
8
Top_Mask
2
SHAPE_EL_478_478_0_0_0_0
10
0.0000000
20
0.0000000
41
1.0000000
42
1.0000000
43
1.0000000
50
0.0000000
0
ENDBLK
0
BLOCK
2
_Default_via6
8
0
70
0
10
0.0000000
20
0.0000000
0
INSERT
8
Top_Mask
2
SHAPE_EL_478_478_0_0_0_0
10
0.0000000
20
0.0000000
41
1.0000000
42
1.0000000
43
1.0000000
50
0.0000000
0
ENDBLK
0
BLOCK
2
_Default_via22
8
0
70
0
10
0.0000000
20
0.0000000
0
INSERT
8
Top_Mask
2
SHAPE_EL_478_478_0_0_0_0
10
0.0000000
20
0.0000000
41
1.0000000
42
1.0000000
43
1.0000000
50
0.0000000
0
ENDBLK
0
BLOCK
2
N524
8
0
70
0
10
0.0000000
20
0.0000000
0
INSERT
8
Top_Mask
2
SHAPE_EL_669_669_0_0_0_0
10
0.0000000
20
0.0000000
41
1.0000000
42
1.0000000
43
1.0000000
50
0.0000000
0
ENDBLK
0
BLOCK
2
N522
8
0
70
0
10
0.0000000
20
0.0000000
0
INSERT
8
Top_Mask
2
SHAPE_EL_669_669_0_0_0_0
10
0.0000000
20
0.0000000
41
1.0000000
42
1.0000000
43
1.0000000
50
0.0000000
0
ENDBLK
0
BLOCK
2
_Default_via16
8
0
70
0
10
0.0000000
20
0.0000000
0
INSERT
8
Top_Mask
2
SHAPE_EL_478_478_0_0_0_0
10
0.0000000
20
0.0000000
41
1.0000000
42
1.0000000
43
1.0000000
50
0.0000000
0
ENDBLK
0
BLOCK
2
N22
8
0
70
0
10
0.0000000
20
0.0000000
0
INSERT
8
Top_Mask
2
SHAPE_EL_2440_2440_0_0_0_0
10
0.0000000
20
0.0000000
41
1.0000000
42
1.0000000
43
1.0000000
50
0.0000000
0
ENDBLK
0
BLOCK
2
N75
8
0
70
0
10
0.0000000
20
0.0000000
0
INSERT
8
Top_Mask
2
SHAPE_EL_905_905_0_0_0_0
10
0.0000000
20
0.0000000
41
1.0000000
42
1.0000000
43
1.0000000
50
0.0000000
0
ENDBLK
0
BLOCK
2
N711
8
0
70
0
10
0.0000000
20
0.0000000
0
INSERT
8
Top_Mask
2
SHAPE_EL_905_905_0_0_0_0
10
0.0000000
20
0.0000000
41
1.0000000
42
1.0000000
43
1.0000000
50
0.0000000
0
ENDBLK
0
BLOCK
2
N74
8
0
70
0
10
0.0000000
20
0.0000000
0
INSERT
8
Top_Mask
2
SHAPE_EL_905_905_0_0_0_0
10
0.0000000
20
0.0000000
41
1.0000000
42
1.0000000
43
1.0000000
50
0.0000000
0
ENDBLK
0
BLOCK
2
N714
8
0
70
0
10
0.0000000
20
0.0000000
0
INSERT
8
Top_Mask
2
SHAPE_EL_905_905_0_0_0_0
10
0.0000000
20
0.0000000
41
1.0000000
42
1.0000000
43
1.0000000
50
0.0000000
0
ENDBLK
0
BLOCK
2
N71
8
0
70
0
10
0.0000000
20
0.0000000
0
INSERT
8
Top_Mask
2
SHAPE_EL_905_905_0_0_0_0
10
0.0000000
20
0.0000000
41
1.0000000
42
1.0000000
43
1.0000000
50
0.0000000
0
ENDBLK
0
BLOCK
2
N81
8
0
70
0
10
0.0000000
20
0.0000000
0
INSERT
8
Top_Mask
2
SHAPE_EL_1259_1259_0_0_0_0
10
0.0000000
20
0.0000000
41
1.0000000
42
1.0000000
43
1.0000000
50
0.0000000
0
ENDBLK
0
BLOCK
2
N7R16
8
0
70
0
10
0.0000000
20
0.0000000
0
INSERT
8
Top_Mask
2
SHAPE_SQ_905_905_0_0_0_0
10
0.0000000
20
0.0000000
41
1.0000000
42
1.0000000
43
1.0000000
50
0.0000000
0
ENDBLK
0
BLOCK
2
N7R
8
0
70
0
10
0.0000000
20
0.0000000
0
INSERT
8
Top_Mask
2
SHAPE_SQ_905_905_0_0_0_0
10
0.0000000
20
0.0000000
41
1.0000000
42
1.0000000
43
1.0000000
50
0.0000000
0
ENDBLK
0
BLOCK
2
N7R6
8
0
70
0
10
0.0000000
20
0.0000000
0
INSERT
8
Top_Mask
2
SHAPE_SQ_905_905_0_0_0_0
10
0.0000000
20
0.0000000
41
1.0000000
42
1.0000000
43
1.0000000
50
0.0000000
0
ENDBLK
0
BLOCK
2
N7R12
8
0
70
0
10
0.0000000
20
0.0000000
0
INSERT
8
Top_Mask
2
SHAPE_SQ_905_905_0_0_0_0
10
0.0000000
20
0.0000000
41
1.0000000
42
1.0000000
43
1.0000000
50
0.0000000
0
ENDBLK
0
BLOCK
2
N7R7
8
0
70
0
10
0.0000000
20
0.0000000
0
INSERT
8
Top_Mask
2
SHAPE_SQ_905_905_0_0_0_0
10
0.0000000
20
0.0000000
41
1.0000000
42
1.0000000
43
1.0000000
50
0.0000000
0
ENDBLK
0
BLOCK
2
N7R13
8
0
70
0
10
0.0000000
20
0.0000000
0
INSERT
8
Top_Mask
2
SHAPE_SQ_905_905_0_0_0_0
10
0.0000000
20
0.0000000
41
1.0000000
42
1.0000000
43
1.0000000
50
0.0000000
0
ENDBLK
0
BLOCK
2
N7R10
8
0
70
0
10
0.0000000
20
0.0000000
0
INSERT
8
Top_Mask
2
SHAPE_SQ_905_905_0_0_0_0
10
0.0000000
20
0.0000000
41
1.0000000
42
1.0000000
43
1.0000000
50
0.0000000
0
ENDBLK
0
BLOCK
2
N7R9
8
0
70
0
10
0.0000000
20
0.0000000
0
INSERT
8
Top_Mask
2
SHAPE_SQ_905_905_0_0_0_0
10
0.0000000
20
0.0000000
41
1.0000000
42
1.0000000
43
1.0000000
50
0.0000000
0
ENDBLK
0
BLOCK
2
N7R14
8
0
70
0
10
0.0000000
20
0.0000000
0
INSERT
8
Top_Mask
2
SHAPE_SQ_905_905_0_0_0_0
10
0.0000000
20
0.0000000
41
1.0000000
42
1.0000000
43
1.0000000
50
0.0000000
0
ENDBLK
0
BLOCK
2
N7R11
8
0
70
0
10
0.0000000
20
0.0000000
0
INSERT
8
Top_Mask
2
SHAPE_SQ_905_905_0_0_0_0
10
0.0000000
20
0.0000000
41
1.0000000
42
1.0000000
43
1.0000000
50
0.0000000
0
ENDBLK
0
BLOCK
2
N615_F
8
0
70
0
10
0.0000000
20
0.0000000
0
INSERT
8
Top_Mask
2
SHAPE_EL_787_787_0_0_0_0
10
0.0000000
20
0.0000000
41
1.0000000
42
1.0000000
43
1.0000000
50
0.0000000
0
ENDBLK
0
BLOCK
2
N618_F
8
0
70
0
10
0.0000000
20
0.0000000
0
INSERT
8
Top_Mask
2
SHAPE_EL_787_787_0_0_0_0
10
0.0000000
20
0.0000000
41
1.0000000
42
1.0000000
43
1.0000000
50
0.0000000
0
ENDBLK
0
BLOCK
2
N620_F
8
0
70
0
10
0.0000000
20
0.0000000
0
INSERT
8
Top_Mask
2
SHAPE_EL_787_787_0_0_0_0
10
0.0000000
20
0.0000000
41
1.0000000
42
1.0000000
43
1.0000000
50
0.0000000
0
ENDBLK
0
BLOCK
2
N621_F
8
0
70
0
10
0.0000000
20
0.0000000
0
INSERT
8
Top_Mask
2
SHAPE_EL_787_787_0_0_0_0
10
0.0000000
20
0.0000000
41
1.0000000
42
1.0000000
43
1.0000000
50
0.0000000
0
ENDBLK
0
BLOCK
2
N617_F
8
0
70
0
10
0.0000000
20
0.0000000
0
INSERT
8
Top_Mask
2
SHAPE_EL_787_787_0_0_0_0
10
0.0000000
20
0.0000000
41
1.0000000
42
1.0000000
43
1.0000000
50
0.0000000
0
ENDBLK
0
BLOCK
2
N61_F
8
0
70
0
10
0.0000000
20
0.0000000
0
INSERT
8
Top_Mask
2
SHAPE_EL_787_787_0_0_0_0
10
0.0000000
20
0.0000000
41
1.0000000
42
1.0000000
43
1.0000000
50
0.0000000
0
ENDBLK
0
BLOCK
2
N64_F
8
0
70
0
10
0.0000000
20
0.0000000
0
INSERT
8
Top_Mask
2
SHAPE_EL_787_787_0_0_0_0
10
0.0000000
20
0.0000000
41
1.0000000
42
1.0000000
43
1.0000000
50
0.0000000
0
ENDBLK
0
BLOCK
2
N68_F
8
0
70
0
10
0.0000000
20
0.0000000
0
INSERT
8
Top_Mask
2
SHAPE_EL_787_787_0_0_0_0
10
0.0000000
20
0.0000000
41
1.0000000
42
1.0000000
43
1.0000000
50
0.0000000
0
ENDBLK
0
BLOCK
2
N67_F
8
0
70
0
10
0.0000000
20
0.0000000
0
INSERT
8
Top_Mask
2
SHAPE_EL_787_787_0_0_0_0
10
0.0000000
20
0.0000000
41
1.0000000
42
1.0000000
43
1.0000000
50
0.0000000
0
ENDBLK
0
BLOCK
2
N614_F
8
0
70
0
10
0.0000000
20
0.0000000
0
INSERT
8
Top_Mask
2
SHAPE_EL_787_787_0_0_0_0
10
0.0000000
20
0.0000000
41
1.0000000
42
1.0000000
43
1.0000000
50
0.0000000
0
ENDBLK
0
BLOCK
2
N6R16_F
8
0
70
0
10
0.0000000
20
0.0000000
0
INSERT
8
Top_Mask
2
SHAPE_SQ_787_787_0_0_0_0
10
0.0000000
20
0.0000000
41
1.0000000
42
1.0000000
43
1.0000000
50
0.0000000
0
ENDBLK
0
BLOCK
2
N619_F
8
0
70
0
10
0.0000000
20
0.0000000
0
INSERT
8
Top_Mask
2
SHAPE_EL_787_787_0_0_0_0
10
0.0000000
20
0.0000000
41
1.0000000
42
1.0000000
43
1.0000000
50
0.0000000
0
ENDBLK
0
BLOCK
2
N623_F
8
0
70
0
10
0.0000000
20
0.0000000
0
INSERT
8
Top_Mask
2
SHAPE_EL_787_787_0_0_0_0
10
0.0000000
20
0.0000000
41
1.0000000
42
1.0000000
43
1.0000000
50
0.0000000
0
ENDBLK
0
BLOCK
2
N65_F
8
0
70
0
10
0.0000000
20
0.0000000
0
INSERT
8
Top_Mask
2
SHAPE_EL_787_787_0_0_0_0
10
0.0000000
20
0.0000000
41
1.0000000
42
1.0000000
43
1.0000000
50
0.0000000
0
ENDBLK
0
BLOCK
2
N63_F
8
0
70
0
10
0.0000000
20
0.0000000
0
INSERT
8
Top_Mask
2
SHAPE_EL_787_787_0_0_0_0
10
0.0000000
20
0.0000000
41
1.0000000
42
1.0000000
43
1.0000000
50
0.0000000
0
ENDBLK
0
BLOCK
2
N611_F
8
0
70
0
10
0.0000000
20
0.0000000
0
INSERT
8
Top_Mask
2
SHAPE_EL_787_787_0_0_0_0
10
0.0000000
20
0.0000000
41
1.0000000
42
1.0000000
43
1.0000000
50
0.0000000
0
ENDBLK
0
BLOCK
2
N66_F
8
0
70
0
10
0.0000000
20
0.0000000
0
INSERT
8
Top_Mask
2
SHAPE_EL_787_787_0_0_0_0
10
0.0000000
20
0.0000000
41
1.0000000
42
1.0000000
43
1.0000000
50
0.0000000
0
ENDBLK
0
BLOCK
2
N612_F
8
0
70
0
10
0.0000000
20
0.0000000
0
INSERT
8
Top_Mask
2
SHAPE_EL_787_787_0_0_0_0
10
0.0000000
20
0.0000000
41
1.0000000
42
1.0000000
43
1.0000000
50
0.0000000
0
ENDBLK
0
BLOCK
2
N610_F
8
0
70
0
10
0.0000000
20
0.0000000
0
INSERT
8
Top_Mask
2
SHAPE_EL_787_787_0_0_0_0
10
0.0000000
20
0.0000000
41
1.0000000
42
1.0000000
43
1.0000000
50
0.0000000
0
ENDBLK
0
BLOCK
2
N622_F
8
0
70
0
10
0.0000000
20
0.0000000
0
INSERT
8
Top_Mask
2
SHAPE_EL_787_787_0_0_0_0
10
0.0000000
20
0.0000000
41
1.0000000
42
1.0000000
43
1.0000000
50
0.0000000
0
ENDBLK
0
BLOCK
2
N613_F
8
0
70
0
10
0.0000000
20
0.0000000
0
INSERT
8
Top_Mask
2
SHAPE_EL_787_787_0_0_0_0
10
0.0000000
20
0.0000000
41
1.0000000
42
1.0000000
43
1.0000000
50
0.0000000
0
ENDBLK
0
BLOCK
2
N69_F
8
0
70
0
10
0.0000000
20
0.0000000
0
INSERT
8
Top_Mask
2
SHAPE_EL_787_787_0_0_0_0
10
0.0000000
20
0.0000000
41
1.0000000
42
1.0000000
43
1.0000000
50
0.0000000
0
ENDBLK
0
BLOCK
2
N6_F
8
0
70
0
10
0.0000000
20
0.0000000
0
INSERT
8
Top_Mask
2
SHAPE_EL_787_787_0_0_0_0
10
0.0000000
20
0.0000000
41
1.0000000
42
1.0000000
43
1.0000000
50
0.0000000
0
ENDBLK
0
BLOCK
2
N62_F
8
0
70
0
10
0.0000000
20
0.0000000
0
INSERT
8
Top_Mask
2
SHAPE_EL_787_787_0_0_0_0
10
0.0000000
20
0.0000000
41
1.0000000
42
1.0000000
43
1.0000000
50
0.0000000
0
ENDBLK
0
BLOCK
2
N7R2
8
0
70
0
10
0.0000000
20
0.0000000
0
INSERT
8
Top_Mask
2
SHAPE_SQ_905_905_0_0_0_0
10
0.0000000
20
0.0000000
41
1.0000000
42
1.0000000
43
1.0000000
50
0.0000000
0
ENDBLK
0
BLOCK
2
N51
8
0
70
0
10
0.0000000
20
0.0000000
0
INSERT
8
Top_Mask
2
SHAPE_EL_669_669_0_0_0_0
10
0.0000000
20
0.0000000
41
1.0000000
42
1.0000000
43
1.0000000
50
0.0000000
0
ENDBLK
0
BLOCK
2
N523
8
0
70
0
10
0.0000000
20
0.0000000
0
INSERT
8
Top_Mask
2
SHAPE_EL_669_669_0_0_0_0
10
0.0000000
20
0.0000000
41
1.0000000
42
1.0000000
43
1.0000000
50
0.0000000
0
ENDBLK
0
BLOCK
2
N73
8
0
70
0
10
0.0000000
20
0.0000000
0
INSERT
8
Top_Mask
2
SHAPE_EL_905_905_0_0_0_0
10
0.0000000
20
0.0000000
41
1.0000000
42
1.0000000
43
1.0000000
50
0.0000000
0
ENDBLK
0
BLOCK
2
N78
8
0
70
0
10
0.0000000
20
0.0000000
0
INSERT
8
Top_Mask
2
SHAPE_EL_905_905_0_0_0_0
10
0.0000000
20
0.0000000
41
1.0000000
42
1.0000000
43
1.0000000
50
0.0000000
0
ENDBLK
0
BLOCK
2
N611
8
0
70
0
10
0.0000000
20
0.0000000
0
INSERT
8
Top_Mask
2
SHAPE_EL_787_787_0_0_0_0
10
0.0000000
20
0.0000000
41
1.0000000
42
1.0000000
43
1.0000000
50
0.0000000
0
ENDBLK
0
BLOCK
2
N62
8
0
70
0
10
0.0000000
20
0.0000000
0
INSERT
8
Top_Mask
2
SHAPE_EL_787_787_0_0_0_0
10
0.0000000
20
0.0000000
41
1.0000000
42
1.0000000
43
1.0000000
50
0.0000000
0
ENDBLK
0
BLOCK
2
N61
8
0
70
0
10
0.0000000
20
0.0000000
0
INSERT
8
Top_Mask
2
SHAPE_EL_787_787_0_0_0_0
10
0.0000000
20
0.0000000
41
1.0000000
42
1.0000000
43
1.0000000
50
0.0000000
0
ENDBLK
0
BLOCK
2
N624
8
0
70
0
10
0.0000000
20
0.0000000
0
INSERT
8
Top_Mask
2
SHAPE_EL_787_787_0_0_0_0
10
0.0000000
20
0.0000000
41
1.0000000
42
1.0000000
43
1.0000000
50
0.0000000
0
ENDBLK
0
BLOCK
2
N617
8
0
70
0
10
0.0000000
20
0.0000000
0
INSERT
8
Top_Mask
2
SHAPE_EL_787_787_0_0_0_0
10
0.0000000
20
0.0000000
41
1.0000000
42
1.0000000
43
1.0000000
50
0.0000000
0
ENDBLK
0
BLOCK
2
N91
8
0
70
0
10
0.0000000
20
0.0000000
0
INSERT
8
Top_Mask
2
SHAPE_EL_1141_1141_0_0_0_0
10
0.0000000
20
0.0000000
41
1.0000000
42
1.0000000
43
1.0000000
50
0.0000000
0
ENDBLK
0
BLOCK
2
N619
8
0
70
0
10
0.0000000
20
0.0000000
0
INSERT
8
Top_Mask
2
SHAPE_EL_787_787_0_0_0_0
10
0.0000000
20
0.0000000
41
1.0000000
42
1.0000000
43
1.0000000
50
0.0000000
0
ENDBLK
0
BLOCK
2
d2_41
8
0
70
0
10
0.0000000
20
0.0000000
0
INSERT
8
Top_Mask
2
SHAPE_EL_1496_1496_0_0_0_0
10
0.0000000
20
0.0000000
41
1.0000000
42
1.0000000
43
1.0000000
50
0.0000000
0
ENDBLK
0
BLOCK
2
d1_018
8
0
70
0
10
0.0000000
20
0.0000000
0
INSERT
8
Top_Mask
2
SHAPE_EL_708_708_0_0_0_0
10
0.0000000
20
0.0000000
41
1.0000000
42
1.0000000
43
1.0000000
50
0.0000000
0
ENDBLK
0
BLOCK
2
d1_020
8
0
70
0
10
0.0000000
20
0.0000000
0
INSERT
8
Top_Mask
2
SHAPE_EL_708_708_0_0_0_0
10
0.0000000
20
0.0000000
41
1.0000000
42
1.0000000
43
1.0000000
50
0.0000000
0
ENDBLK
0
BLOCK
2
d1_015
8
0
70
0
10
0.0000000
20
0.0000000
0
INSERT
8
Top_Mask
2
SHAPE_EL_708_708_0_0_0_0
10
0.0000000
20
0.0000000
41
1.0000000
42
1.0000000
43
1.0000000
50
0.0000000
0
ENDBLK
0
BLOCK
2
d1_021
8
0
70
0
10
0.0000000
20
0.0000000
0
INSERT
8
Top_Mask
2
SHAPE_EL_708_708_0_0_0_0
10
0.0000000
20
0.0000000
41
1.0000000
42
1.0000000
43
1.0000000
50
0.0000000
0
ENDBLK
0
BLOCK
2
1024
8
0
70
0
10
0.0000000
20
0.0000000
0
INSERT
8
Top_Mask
2
SHAPE_EL_1259_1259_0_0_0_0
10
0.0000000
20
0.0000000
41
1.0000000
42
1.0000000
43
1.0000000
50
0.0000000
0
ENDBLK
0
BLOCK
2
1017
8
0
70
0
10
0.0000000
20
0.0000000
0
INSERT
8
Top_Mask
2
SHAPE_EL_1259_1259_0_0_0_0
10
0.0000000
20
0.0000000
41
1.0000000
42
1.0000000
43
1.0000000
50
0.0000000
0
ENDBLK
0
BLOCK
2
1019
8
0
70
0
10
0.0000000
20
0.0000000
0
INSERT
8
Top_Mask
2
SHAPE_EL_1259_1259_0_0_0_0
10
0.0000000
20
0.0000000
41
1.0000000
42
1.0000000
43
1.0000000
50
0.0000000
0
ENDBLK
0
BLOCK
2
1022
8
0
70
0
10
0.0000000
20
0.0000000
0
INSERT
8
Top_Mask
2
SHAPE_EL_1259_1259_0_0_0_0
10
0.0000000
20
0.0000000
41
1.0000000
42
1.0000000
43
1.0000000
50
0.0000000
0
ENDBLK
0
BLOCK
2
101
8
0
70
0
10
0.0000000
20
0.0000000
0
INSERT
8
Top_Mask
2
SHAPE_EL_1259_1259_0_0_0_0
10
0.0000000
20
0.0000000
41
1.0000000
42
1.0000000
43
1.0000000
50
0.0000000
0
ENDBLK
0
BLOCK
2
Cross
8
0
70
0
10
0.0000000
20
0.0000000
0
LINE
8
Drill_Layer
6
CONTINUOUS
10
0.0000000
20
-12.7000000
11
0.0000000
21
12.7000000
0
LINE
8
Drill_Layer
6
CONTINUOUS
10
-12.7000000
20
0.0000000
11
12.7000000
21
0.0000000
0
ENDBLK
0
BLOCK
2
X
8
0
70
0
10
0.0000000
20
0.0000000
0
LINE
8
Drill_Layer
6
CONTINUOUS
10
-12.7000000
20
12.7000000
11
12.7000000
21
-12.7000000
0
LINE
8
Drill_Layer
6
CONTINUOUS
10
12.7000000
20
12.7000000
11
-12.7000000
21
-12.7000000
0
ENDBLK
0
BLOCK
2
Y
8
0
70
0
10
0.0000000
20
0.0000000
0
LINE
8
Drill_Layer
6
CONTINUOUS
10
0.0000000
20
-12.7000000
11
0.0000000
21
0.0000000
0
LINE
8
Drill_Layer
6
CONTINUOUS
10
-12.7000000
20
12.7000000
11
0.0000000
21
0.0000000
0
LINE
8
Drill_Layer
6
CONTINUOUS
10
0.0000000
20
0.0000000
11
12.7000000
21
12.7000000
0
ENDBLK
0
BLOCK
2
T
8
0
70
0
10
0.0000000
20
0.0000000
0
LINE
8
Drill_Layer
6
CONTINUOUS
10
-12.7000000
20
0.0000000
11
12.7000000
21
0.0000000
0
LINE
8
Drill_Layer
6
CONTINUOUS
10
0.0000000
20
-12.7000000
11
0.0000000
21
0.0000000
0
ENDBLK
0
BLOCK
2
Hour
8
0
70
0
10
0.0000000
20
0.0000000
0
LINE
8
Drill_Layer
6
CONTINUOUS
10
-12.7000000
20
12.7000000
11
12.7000000
21
12.7000000
0
LINE
8
Drill_Layer
6
CONTINUOUS
10
12.7000000
20
-12.7000000
11
-12.7000000
21
-12.7000000
0
LINE
8
Drill_Layer
6
CONTINUOUS
10
-12.7000000
20
12.7000000
11
12.7000000
21
-12.7000000
0
LINE
8
Drill_Layer
6
CONTINUOUS
10
12.7000000
20
12.7000000
11
-12.7000000
21
-12.7000000
0
ENDBLK
0
BLOCK
2
Side_Hour
8
0
70
0
10
0.0000000
20
0.0000000
0
LINE
8
Drill_Layer
6
CONTINUOUS
10
12.7000000
20
12.7000000
11
12.7000000
21
-12.7000000
0
LINE
8
Drill_Layer
6
CONTINUOUS
10
-12.7000000
20
-12.7000000
11
-12.7000000
21
12.7000000
0
LINE
8
Drill_Layer
6
CONTINUOUS
10
-12.7000000
20
12.7000000
11
12.7000000
21
-12.7000000
0
LINE
8
Drill_Layer
6
CONTINUOUS
10
12.7000000
20
12.7000000
11
-12.7000000
21
-12.7000000
0
ENDBLK
0
BLOCK
2
Box_Line
8
0
70
0
10
0.0000000
20
0.0000000
0
LINE
8
Drill_Layer
6
CONTINUOUS
10
-12.7000000
20
12.7000000
11
12.7000000
21
12.7000000
0
LINE
8
Drill_Layer
6
CONTINUOUS
10
12.7000000
20
12.7000000
11
12.7000000
21
-12.7000000
0
LINE
8
Drill_Layer
6
CONTINUOUS
10
12.7000000
20
-12.7000000
11
-12.7000000
21
-12.7000000
0
LINE
8
Drill_Layer
6
CONTINUOUS
10
-12.7000000
20
-12.7000000
11
-12.7000000
21
12.7000000
0
LINE
8
Drill_Layer
6
CONTINUOUS
10
0.0000000
20
12.7000000
11
0.0000000
21
0.0000000
0
ENDBLK
0
BLOCK
2
Diamond_Line
8
0
70
0
10
0.0000000
20
0.0000000
0
LINE
8
Drill_Layer
6
CONTINUOUS
10
12.7000000
20
0.0000000
11
0.0000000
21
12.7000000
0
LINE
8
Drill_Layer
6
CONTINUOUS
10
0.0000000
20
12.7000000
11
-12.7000000
21
0.0000000
0
LINE
8
Drill_Layer
6
CONTINUOUS
10
-12.7000000
20
0.0000000
11
0.0000000
21
-12.7000000
0
LINE
8
Drill_Layer
6
CONTINUOUS
10
0.0000000
20
-12.7000000
11
12.7000000
21
0.0000000
0
LINE
8
Drill_Layer
6
CONTINUOUS
10
0.0000000
20
12.7000000
11
0.0000000
21
0.0000000
0
ENDBLK
0
BLOCK
2
Box_V
8
0
70
0
10
0.0000000
20
0.0000000
0
LINE
8
Drill_Layer
6
CONTINUOUS
10
-12.7000000
20
12.7000000
11
12.7000000
21
12.7000000
0
LINE
8
Drill_Layer
6
CONTINUOUS
10
12.7000000
20
12.7000000
11
12.7000000
21
-12.7000000
0
LINE
8
Drill_Layer
6
CONTINUOUS
10
12.7000000
20
-12.7000000
11
-12.7000000
21
-12.7000000
0
LINE
8
Drill_Layer
6
CONTINUOUS
10
-12.7000000
20
-12.7000000
11
-12.7000000
21
12.7000000
0
LINE
8
Drill_Layer
6
CONTINUOUS
10
-12.7000000
20
12.7000000
11
0.0000000
21
0.0000000
0
LINE
8
Drill_Layer
6
CONTINUOUS
10
0.0000000
20
0.0000000
11
12.7000000
21
12.7000000
0
ENDBLK
0
BLOCK
2
Diamond_V
8
0
70
0
10
0.0000000
20
0.0000000
0
LINE
8
Drill_Layer
6
CONTINUOUS
10
12.7000000
20
0.0000000
11
0.0000000
21
12.7000000
0
LINE
8
Drill_Layer
6
CONTINUOUS
10
0.0000000
20
12.7000000
11
-12.7000000
21
0.0000000
0
LINE
8
Drill_Layer
6
CONTINUOUS
10
-12.7000000
20
0.0000000
11
0.0000000
21
-12.7000000
0
LINE
8
Drill_Layer
6
CONTINUOUS
10
0.0000000
20
-12.7000000
11
12.7000000
21
0.0000000
0
LINE
8
Drill_Layer
6
CONTINUOUS
10
6.3500000
20
6.3500000
11
0.0000000
21
0.0000000
0
LINE
8
Drill_Layer
6
CONTINUOUS
10
0.0000000
20
0.0000000
11
-6.3500000
21
6.3500000
0
ENDBLK
0
BLOCK
2
POLY_S4_L6_1148
8
Top_Silk
70
0
10
0.0000000
20
0.0000000
0
LINE
8
Top_Silk
6
CONTINUOUS
10
479.2300000
20
811.2300000
11
481.7700000
21
811.2300000
0
LINE
8
Top_Silk
6
CONTINUOUS
10
481.7700000
20
811.2300000
11
481.7700000
21
813.7700000
0
LINE
8
Top_Silk
6
CONTINUOUS
10
481.7700000
20
813.7700000
11
479.2300000
21
813.7700000
0
LINE
8
Top_Silk
6
CONTINUOUS
10
479.2300000
20
813.7700000
11
479.2300000
21
811.2300000
0
ENDBLK
0
BLOCK
2
POLY_S4_L6_1183
8
Top_Silk
70
0
10
0.0000000
20
0.0000000
0
LINE
8
Top_Silk
6
CONTINUOUS
10
480.7300000
20
845.2300000
11
483.2700000
21
845.2300000
0
LINE
8
Top_Silk
6
CONTINUOUS
10
483.2700000
20
845.2300000
11
483.2700000
21
847.7700000
0
LINE
8
Top_Silk
6
CONTINUOUS
10
483.2700000
20
847.7700000
11
480.7300000
21
847.7700000
0
LINE
8
Top_Silk
6
CONTINUOUS
10
480.7300000
20
847.7700000
11
480.7300000
21
845.2300000
0
ENDBLK
0
BLOCK
2
POLY_S4_L6_1218
8
Top_Silk
70
0
10
0.0000000
20
0.0000000
0
LINE
8
Top_Silk
6
CONTINUOUS
10
507.7300000
20
845.2300000
11
510.2700000
21
845.2300000
0
LINE
8
Top_Silk
6
CONTINUOUS
10
510.2700000
20
845.2300000
11
510.2700000
21
847.7700000
0
LINE
8
Top_Silk
6
CONTINUOUS
10
510.2700000
20
847.7700000
11
507.7300000
21
847.7700000
0
LINE
8
Top_Silk
6
CONTINUOUS
10
507.7300000
20
847.7700000
11
507.7300000
21
845.2300000
0
ENDBLK
0
BLOCK
2
POLY_S4_L6_1242
8
Top_Silk
70
0
10
0.0000000
20
0.0000000
0
LINE
8
Top_Silk
6
CONTINUOUS
10
530.2300000
20
811.2300000
11
532.7700000
21
811.2300000
0
LINE
8
Top_Silk
6
CONTINUOUS
10
532.7700000
20
811.2300000
11
532.7700000
21
813.7700000
0
LINE
8
Top_Silk
6
CONTINUOUS
10
532.7700000
20
813.7700000
11
530.2300000
21
813.7700000
0
LINE
8
Top_Silk
6
CONTINUOUS
10
530.2300000
20
813.7700000
11
530.2300000
21
811.2300000
0
ENDBLK
0
BLOCK
2
POLY_S4_L6_1266
8
Top_Silk
70
0
10
0.0000000
20
0.0000000
0
LINE
8
Top_Silk
6
CONTINUOUS
10
534.7300000
20
845.2300000
11
537.2700000
21
845.2300000
0
LINE
8
Top_Silk
6
CONTINUOUS
10
537.2700000
20
845.2300000
11
537.2700000
21
847.7700000
0
LINE
8
Top_Silk
6
CONTINUOUS
10
537.2700000
20
847.7700000
11
534.7300000
21
847.7700000
0
LINE
8
Top_Silk
6
CONTINUOUS
10
534.7300000
20
847.7700000
11
534.7300000
21
845.2300000
0
ENDBLK
0
BLOCK
2
POLY_S4_L6_1290
8
Top_Silk
70
0
10
0.0000000
20
0.0000000
0
LINE
8
Top_Silk
6
CONTINUOUS
10
564.2300000
20
811.2300000
11
566.7700000
21
811.2300000
0
LINE
8
Top_Silk
6
CONTINUOUS
10
566.7700000
20
811.2300000
11
566.7700000
21
813.7700000
0
LINE
8
Top_Silk
6
CONTINUOUS
10
566.7700000
20
813.7700000
11
564.2300000
21
813.7700000
0
LINE
8
Top_Silk
6
CONTINUOUS
10
564.2300000
20
813.7700000
11
564.2300000
21
811.2300000
0
ENDBLK
0
BLOCK
2
POLY_S4_L6_1314
8
Top_Silk
70
0
10
0.0000000
20
0.0000000
0
LINE
8
Top_Silk
6
CONTINUOUS
10
561.7300000
20
845.2300000
11
564.2700000
21
845.2300000
0
LINE
8
Top_Silk
6
CONTINUOUS
10
564.2700000
20
845.2300000
11
564.2700000
21
847.7700000
0
LINE
8
Top_Silk
6
CONTINUOUS
10
564.2700000
20
847.7700000
11
561.7300000
21
847.7700000
0
LINE
8
Top_Silk
6
CONTINUOUS
10
561.7300000
20
847.7700000
11
561.7300000
21
845.2300000
0
ENDBLK
0
BLOCK
2
POLY_S4_L6_1452
8
Top_Silk
70
0
10
0.0000000
20
0.0000000
0
LINE
8
Top_Silk
6
CONTINUOUS
10
479.2300000
20
794.2300000
11
481.7700000
21
794.2300000
0
LINE
8
Top_Silk
6
CONTINUOUS
10
481.7700000
20
794.2300000
11
481.7700000
21
796.7700000
0
LINE
8
Top_Silk
6
CONTINUOUS
10
481.7700000
20
796.7700000
11
479.2300000
21
796.7700000
0
LINE
8
Top_Silk
6
CONTINUOUS
10
479.2300000
20
796.7700000
11
479.2300000
21
794.2300000
0
ENDBLK
0
BLOCK
2
POLY_S4_L6_1476
8
Top_Silk
70
0
10
0.0000000
20
0.0000000
0
LINE
8
Top_Silk
6
CONTINUOUS
10
479.2300000
20
828.2300000
11
481.7700000
21
828.2300000
0
LINE
8
Top_Silk
6
CONTINUOUS
10
481.7700000
20
828.2300000
11
481.7700000
21
830.7700000
0
LINE
8
Top_Silk
6
CONTINUOUS
10
481.7700000
20
830.7700000
11
479.2300000
21
830.7700000
0
LINE
8
Top_Silk
6
CONTINUOUS
10
479.2300000
20
830.7700000
11
479.2300000
21
828.2300000
0
ENDBLK
0
BLOCK
2
POLY_S4_L6_1500
8
Top_Silk
70
0
10
0.0000000
20
0.0000000
0
LINE
8
Top_Silk
6
CONTINUOUS
10
530.2300000
20
828.2300000
11
532.7700000
21
828.2300000
0
LINE
8
Top_Silk
6
CONTINUOUS
10
532.7700000
20
828.2300000
11
532.7700000
21
830.7700000
0
LINE
8
Top_Silk
6
CONTINUOUS
10
532.7700000
20
830.7700000
11
530.2300000
21
830.7700000
0
LINE
8
Top_Silk
6
CONTINUOUS
10
530.2300000
20
830.7700000
11
530.2300000
21
828.2300000
0
ENDBLK
0
BLOCK
2
POLY_S4_L6_1524
8
Top_Silk
70
0
10
0.0000000
20
0.0000000
0
LINE
8
Top_Silk
6
CONTINUOUS
10
530.2300000
20
794.2300000
11
532.7700000
21
794.2300000
0
LINE
8
Top_Silk
6
CONTINUOUS
10
532.7700000
20
794.2300000
11
532.7700000
21
796.7700000
0
LINE
8
Top_Silk
6
CONTINUOUS
10
532.7700000
20
796.7700000
11
530.2300000
21
796.7700000
0
LINE
8
Top_Silk
6
CONTINUOUS
10
530.2300000
20
796.7700000
11
530.2300000
21
794.2300000
0
ENDBLK
0
BLOCK
2
POLY_S4_L6_1548
8
Top_Silk
70
0
10
0.0000000
20
0.0000000
0
LINE
8
Top_Silk
6
CONTINUOUS
10
564.2300000
20
794.2300000
11
566.7700000
21
794.2300000
0
LINE
8
Top_Silk
6
CONTINUOUS
10
566.7700000
20
794.2300000
11
566.7700000
21
796.7700000
0
LINE
8
Top_Silk
6
CONTINUOUS
10
566.7700000
20
796.7700000
11
564.2300000
21
796.7700000
0
LINE
8
Top_Silk
6
CONTINUOUS
10
564.2300000
20
796.7700000
11
564.2300000
21
794.2300000
0
ENDBLK
0
BLOCK
2
POLY_S4_L6_1572
8
Top_Silk
70
0
10
0.0000000
20
0.0000000
0
LINE
8
Top_Silk
6
CONTINUOUS
10
564.2700000
20
828.1500000
11
566.8100000
21
828.1500000
0
LINE
8
Top_Silk
6
CONTINUOUS
10
566.8100000
20
828.1500000
11
566.8100000
21
830.6900000
0
LINE
8
Top_Silk
6
CONTINUOUS
10
566.8100000
20
830.6900000
11
564.2700000
21
830.6900000
0
LINE
8
Top_Silk
6
CONTINUOUS
10
564.2700000
20
830.6900000
11
564.2700000
21
828.1500000
0
ENDBLK
0
BLOCK
2
POLY_S4_L6_1640
8
Top_Silk
70
0
10
0.0000000
20
0.0000000
0
LINE
8
Top_Silk
6
CONTINUOUS
10
426.2300000
20
811.2300000
11
428.7700000
21
811.2300000
0
LINE
8
Top_Silk
6
CONTINUOUS
10
428.7700000
20
811.2300000
11
428.7700000
21
813.7700000
0
LINE
8
Top_Silk
6
CONTINUOUS
10
428.7700000
20
813.7700000
11
426.2300000
21
813.7700000
0
LINE
8
Top_Silk
6
CONTINUOUS
10
426.2300000
20
813.7700000
11
426.2300000
21
811.2300000
0
ENDBLK
0
BLOCK
2
POLY_S4_L6_1664
8
Top_Silk
70
0
10
0.0000000
20
0.0000000
0
LINE
8
Top_Silk
6
CONTINUOUS
10
496.2300000
20
811.2300000
11
498.7700000
21
811.2300000
0
LINE
8
Top_Silk
6
CONTINUOUS
10
498.7700000
20
811.2300000
11
498.7700000
21
813.7700000
0
LINE
8
Top_Silk
6
CONTINUOUS
10
498.7700000
20
813.7700000
11
496.2300000
21
813.7700000
0
LINE
8
Top_Silk
6
CONTINUOUS
10
496.2300000
20
813.7700000
11
496.2300000
21
811.2300000
0
ENDBLK
0
BLOCK
2
POLY_S4_L6_1736
8
Top_Silk
70
0
10
0.0000000
20
0.0000000
0
LINE
8
Top_Silk
6
CONTINUOUS
10
513.2300000
20
811.2300000
11
515.7700000
21
811.2300000
0
LINE
8
Top_Silk
6
CONTINUOUS
10
515.7700000
20
811.2300000
11
515.7700000
21
813.7700000
0
LINE
8
Top_Silk
6
CONTINUOUS
10
515.7700000
20
813.7700000
11
513.2300000
21
813.7700000
0
LINE
8
Top_Silk
6
CONTINUOUS
10
513.2300000
20
813.7700000
11
513.2300000
21
811.2300000
0
ENDBLK
0
BLOCK
2
POLY_S4_L6_1760
8
Top_Silk
70
0
10
0.0000000
20
0.0000000
0
LINE
8
Top_Silk
6
CONTINUOUS
10
547.2300000
20
811.2300000
11
549.7700000
21
811.2300000
0
LINE
8
Top_Silk
6
CONTINUOUS
10
549.7700000
20
811.2300000
11
549.7700000
21
813.7700000
0
LINE
8
Top_Silk
6
CONTINUOUS
10
549.7700000
20
813.7700000
11
547.2300000
21
813.7700000
0
LINE
8
Top_Silk
6
CONTINUOUS
10
547.2300000
20
813.7700000
11
547.2300000
21
811.2300000
0
ENDBLK
0
BLOCK
2
POLY_S4_L6_1828
8
Top_Silk
70
0
10
0.0000000
20
0.0000000
0
LINE
8
Top_Silk
6
CONTINUOUS
10
496.2300000
20
794.2300000
11
498.7700000
21
794.2300000
0
LINE
8
Top_Silk
6
CONTINUOUS
10
498.7700000
20
794.2300000
11
498.7700000
21
796.7700000
0
LINE
8
Top_Silk
6
CONTINUOUS
10
498.7700000
20
796.7700000
11
496.2300000
21
796.7700000
0
LINE
8
Top_Silk
6
CONTINUOUS
10
496.2300000
20
796.7700000
11
496.2300000
21
794.2300000
0
ENDBLK
0
BLOCK
2
POLY_S4_L6_1852
8
Top_Silk
70
0
10
0.0000000
20
0.0000000
0
LINE
8
Top_Silk
6
CONTINUOUS
10
496.2300000
20
828.2300000
11
498.7700000
21
828.2300000
0
LINE
8
Top_Silk
6
CONTINUOUS
10
498.7700000
20
828.2300000
11
498.7700000
21
830.7700000
0
LINE
8
Top_Silk
6
CONTINUOUS
10
498.7700000
20
830.7700000
11
496.2300000
21
830.7700000
0
LINE
8
Top_Silk
6
CONTINUOUS
10
496.2300000
20
830.7700000
11
496.2300000
21
828.2300000
0
ENDBLK
0
BLOCK
2
POLY_S4_L6_1876
8
Top_Silk
70
0
10
0.0000000
20
0.0000000
0
LINE
8
Top_Silk
6
CONTINUOUS
10
513.2300000
20
794.2300000
11
515.7700000
21
794.2300000
0
LINE
8
Top_Silk
6
CONTINUOUS
10
515.7700000
20
794.2300000
11
515.7700000
21
796.7700000
0
LINE
8
Top_Silk
6
CONTINUOUS
10
515.7700000
20
796.7700000
11
513.2300000
21
796.7700000
0
LINE
8
Top_Silk
6
CONTINUOUS
10
513.2300000
20
796.7700000
11
513.2300000
21
794.2300000
0
ENDBLK
0
BLOCK
2
POLY_S4_L6_1900
8
Top_Silk
70
0
10
0.0000000
20
0.0000000
0
LINE
8
Top_Silk
6
CONTINUOUS
10
547.2300000
20
794.2300000
11
549.7700000
21
794.2300000
0
LINE
8
Top_Silk
6
CONTINUOUS
10
549.7700000
20
794.2300000
11
549.7700000
21
796.7700000
0
LINE
8
Top_Silk
6
CONTINUOUS
10
549.7700000
20
796.7700000
11
547.2300000
21
796.7700000
0
LINE
8
Top_Silk
6
CONTINUOUS
10
547.2300000
20
796.7700000
11
547.2300000
21
794.2300000
0
ENDBLK
0
BLOCK
2
POLY_S4_L6_1924
8
Top_Silk
70
0
10
0.0000000
20
0.0000000
0
LINE
8
Top_Silk
6
CONTINUOUS
10
547.2300000
20
828.2300000
11
549.7700000
21
828.2300000
0
LINE
8
Top_Silk
6
CONTINUOUS
10
549.7700000
20
828.2300000
11
549.7700000
21
830.7700000
0
LINE
8
Top_Silk
6
CONTINUOUS
10
549.7700000
20
830.7700000
11
547.2300000
21
830.7700000
0
LINE
8
Top_Silk
6
CONTINUOUS
10
547.2300000
20
830.7700000
11
547.2300000
21
828.2300000
0
ENDBLK
0
BLOCK
2
POLY_S4_L6_1948
8
Top_Silk
70
0
10
0.0000000
20
0.0000000
0
LINE
8
Top_Silk
6
CONTINUOUS
10
513.2300000
20
828.2300000
11
515.7700000
21
828.2300000
0
LINE
8
Top_Silk
6
CONTINUOUS
10
515.7700000
20
828.2300000
11
515.7700000
21
830.7700000
0
LINE
8
Top_Silk
6
CONTINUOUS
10
515.7700000
20
830.7700000
11
513.2300000
21
830.7700000
0
LINE
8
Top_Silk
6
CONTINUOUS
10
513.2300000
20
830.7700000
11
513.2300000
21
828.2300000
0
ENDBLK
0
BLOCK
2
MLT0125__1071
8
0
70
0
10
0.0000000
20
0.0000000
0
LINE
8
Top_Silk
6
CONTINUOUS
10
575.1830000
20
833.2470000
11
575.1830000
21
834.3900000
0
LINE
8
Top_Silk
6
CONTINUOUS
10
577.4690000
20
834.3900000
11
577.4690000
21
833.2470000
0
LINE
8
Top_Silk
6
CONTINUOUS
10
575.1830000
20
828.2940000
11
575.1830000
21
829.4370000
0
LINE
8
Top_Silk
6
CONTINUOUS
10
577.4690000
20
829.4370000
11
577.4690000
21
828.2940000
0
LINE
8
Top_Silk
6
CONTINUOUS
10
576.7070000
20
828.2940000
11
577.4690000
21
828.2940000
0
LINE
8
Top_Silk
6
CONTINUOUS
10
576.3260000
20
834.5170000
11
576.3260000
21
836.4220000
0
LINE
8
Top_Silk
6
CONTINUOUS
10
575.1830000
20
834.3900000
11
577.4690000
21
834.3900000
0
LINE
8
Top_Silk
6
CONTINUOUS
10
576.3260000
20
828.2940100
11
576.7070000
21
828.2940000
0
LINE
8
Top_Silk
6
CONTINUOUS
10
576.3260000
20
828.1670000
11
576.3260000
21
826.2620100
0
LINE
8
Top_Silk
6
CONTINUOUS
10
576.3260000
20
828.2940100
11
575.1830000
21
828.2940000
0
LINE
8
Top_Silk
6
CONTINUOUS
10
575.1830000
20
833.2470000
11
575.1830000
21
829.4370000
0
LINE
8
Top_Silk
6
CONTINUOUS
10
577.4690000
20
833.2470000
11
577.4690000
21
829.4370000
0
ENDBLK
0
BLOCK
2
D3M_1097
8
0
70
0
10
0.0000000
20
0.0000000
0
LINE
8
Top_Silk
6
CONTINUOUS
10
403.3650000
20
787.2450000
11
403.3650000
21
793.5950000
0
LINE
8
Top_Silk
6
CONTINUOUS
10
409.7150000
20
793.5950000
11
409.7150000
21
787.2450000
0
LINE
8
Top_Silk
6
CONTINUOUS
10
409.7150000
20
787.2450000
11
403.3650000
21
787.2450000
0
LINE
8
Top_Silk
6
CONTINUOUS
10
403.3650000
20
793.5950000
11
409.7150000
21
793.5950000
0
ENDBLK
0
BLOCK
2
SW_CI11_SK_1108
8
0
70
0
10
0.0000000
20
0.0000000
0
LINE
8
Top_Silk
6
CONTINUOUS
10
442.6400000
20
853.4200000
11
442.6400000
21
848.4200000
0
LINE
8
Top_Silk
6
CONTINUOUS
10
445.0400000
20
853.4200000
11
442.6400000
21
853.4200000
0
LINE
8
Top_Silk
6
CONTINUOUS
10
454.4400000
20
853.4200000
11
454.4400000
21
848.4200000
0
LINE
8
Top_Silk
6
CONTINUOUS
10
452.0400000
20
853.4200000
11
454.4400000
21
853.4200000
0
LINE
8
Top_Silk
6
CONTINUOUS
10
442.6400000
20
844.4200000
11
442.6400000
21
838.9200000
0
LINE
8
Top_Silk
6
CONTINUOUS
10
442.6400000
20
838.9200000
11
445.0400000
21
838.9200000
0
LINE
8
Top_Silk
6
CONTINUOUS
10
449.8400000
20
849.1200000
11
449.8400000
21
843.7200000
0
LINE
8
Top_Silk
6
CONTINUOUS
10
454.4400000
20
844.4200000
11
454.4400000
21
838.9200000
0
LINE
8
Top_Silk
6
CONTINUOUS
10
454.4400000
20
838.9200000
11
452.0400000
21
838.9200000
0
LINE
8
Top_Silk
6
CONTINUOUS
10
447.0400000
20
853.4200000
11
450.0400000
21
853.4200000
0
CIRCLE
8
Top_Silk
6
CONTINUOUS
10
448.5400000
20
846.4200000
40
3.5000000
0
CIRCLE
8
Top_Silk
6
CONTINUOUS
10
448.5400000
20
846.4200000
40
3.0000000
0
CIRCLE
8
Top_Silk
6
CONTINUOUS
10
448.5400000
20
846.4200000
40
5.0000000
0
ENDBLK
0
BLOCK
2
KLIK_1134
8
0
70
0
10
0.0000000
20
0.0000000
0
LINE
8
Top_Silk
6
CONTINUOUS
10
479.2300000
20
813.7700000
11
479.2300000
21
811.2300000
0
LINE
8
Top_Silk
6
CONTINUOUS
10
481.7700000
20
811.2300000
11
481.7700000
21
813.7700000
0
LINE
8
Top_Silk
6
CONTINUOUS
10
474.1500000
20
806.1500000
11
474.1500000
21
818.8500000
0
LINE
8
Top_Silk
6
CONTINUOUS
10
475.4200000
20
807.4200000
11
475.4200000
21
817.5800000
0
LINE
8
Top_Silk
6
CONTINUOUS
10
486.8500000
20
818.8500000
11
486.8500000
21
806.1500000
0
LINE
8
Top_Silk
6
CONTINUOUS
10
485.5800000
20
817.5800000
11
485.5800000
21
807.4200000
0
LINE
8
Top_Silk
6
CONTINUOUS
10
479.2300000
20
811.2300000
11
481.7700000
21
811.2300000
0
LINE
8
Top_Silk
6
CONTINUOUS
10
481.7700000
20
813.7700000
11
479.2300000
21
813.7700000
0
INSERT
8
0
2
POLY_S4_L6_1148
10
0.0000000
20
0.0000000
41
1.0000000
42
1.0000000
43
1.0000000
50
0.0000000
0
CIRCLE
8
Top_Silk
6
CONTINUOUS
10
480.5000000
20
812.5000000
40
3.1750000
0
LINE
8
Top_Silk
6
CONTINUOUS
10
485.5800000
20
807.4200000
11
475.4200000
21
807.4200000
0
LINE
8
Top_Silk
6
CONTINUOUS
10
486.8500000
20
806.1500000
11
474.1500000
21
806.1500000
0
LINE
8
Top_Silk
6
CONTINUOUS
10
474.1500000
20
818.8500000
11
486.8500000
21
818.8500000
0
LINE
8
Top_Silk
6
CONTINUOUS
10
475.4200000
20
817.5800000
11
485.5800000
21
817.5800000
0
ENDBLK
0
BLOCK
2
D3M_1158
8
0
70
0
10
0.0000000
20
0.0000000
0
LINE
8
Top_Silk
6
CONTINUOUS
10
463.3250000
20
805.8250000
11
463.3250000
21
812.1750000
0
LINE
8
Top_Silk
6
CONTINUOUS
10
469.6750000
20
812.1750000
11
469.6750000
21
805.8250000
0
LINE
8
Top_Silk
6
CONTINUOUS
10
469.6750000
20
805.8250000
11
463.3250000
21
805.8250000
0
LINE
8
Top_Silk
6
CONTINUOUS
10
463.3250000
20
812.1750000
11
469.6750000
21
812.1750000
0
ENDBLK
0
BLOCK
2
KLIK_1169
8
0
70
0
10
0.0000000
20
0.0000000
0
LINE
8
Top_Silk
6
CONTINUOUS
10
480.7300000
20
847.7700000
11
480.7300000
21
845.2300000
0
LINE
8
Top_Silk
6
CONTINUOUS
10
483.2700000
20
845.2300000
11
483.2700000
21
847.7700000
0
LINE
8
Top_Silk
6
CONTINUOUS
10
475.6500000
20
840.1500000
11
475.6500000
21
852.8500000
0
LINE
8
Top_Silk
6
CONTINUOUS
10
476.9200000
20
841.4200000
11
476.9200000
21
851.5800000
0
LINE
8
Top_Silk
6
CONTINUOUS
10
488.3500000
20
852.8500000
11
488.3500000
21
840.1500000
0
LINE
8
Top_Silk
6
CONTINUOUS
10
487.0800000
20
851.5800000
11
487.0800000
21
841.4200000
0
LINE
8
Top_Silk
6
CONTINUOUS
10
480.7300000
20
845.2300000
11
483.2700000
21
845.2300000
0
LINE
8
Top_Silk
6
CONTINUOUS
10
483.2700000
20
847.7700000
11
480.7300000
21
847.7700000
0
INSERT
8
0
2
POLY_S4_L6_1183
10
0.0000000
20
0.0000000
41
1.0000000
42
1.0000000
43
1.0000000
50
0.0000000
0
CIRCLE
8
Top_Silk
6
CONTINUOUS
10
482.0000000
20
846.5000000
40
3.1750000
0
LINE
8
Top_Silk
6
CONTINUOUS
10
487.0800000
20
841.4200000
11
476.9200000
21
841.4200000
0
LINE
8
Top_Silk
6
CONTINUOUS
10
488.3500000
20
840.1500000
11
475.6500000
21
840.1500000
0
LINE
8
Top_Silk
6
CONTINUOUS
10
475.6500000
20
852.8500000
11
488.3500000
21
852.8500000
0
LINE
8
Top_Silk
6
CONTINUOUS
10
476.9200000
20
851.5800000
11
487.0800000
21
851.5800000
0
ENDBLK
0
BLOCK
2
D3M_1193
8
0
70
0
10
0.0000000
20
0.0000000
0
LINE
8
Top_Silk
6
CONTINUOUS
10
463.3250000
20
843.3250000
11
463.3250000
21
849.6750000
0
LINE
8
Top_Silk
6
CONTINUOUS
10
469.6750000
20
849.6750000
11
469.6750000
21
843.3250000
0
LINE
8
Top_Silk
6
CONTINUOUS
10
469.6750000
20
843.3250000
11
463.3250000
21
843.3250000
0
LINE
8
Top_Silk
6
CONTINUOUS
10
463.3250000
20
849.6750000
11
469.6750000
21
849.6750000
0
ENDBLK
0
BLOCK
2
KLIK_1204
8
0
70
0
10
0.0000000
20
0.0000000
0
LINE
8
Top_Silk
6
CONTINUOUS
10
507.7300000
20
847.7700000
11
507.7300000
21
845.2300000
0
LINE
8
Top_Silk
6
CONTINUOUS
10
510.2700000
20
845.2300000
11
510.2700000
21
847.7700000
0
LINE
8
Top_Silk
6
CONTINUOUS
10
502.6500000
20
840.1500000
11
502.6500000
21
852.8500000
0
LINE
8
Top_Silk
6
CONTINUOUS
10
503.9200000
20
841.4200000
11
503.9200000
21
851.5800000
0
LINE
8
Top_Silk
6
CONTINUOUS
10
515.3500000
20
852.8500000
11
515.3500000
21
840.1500000
0
LINE
8
Top_Silk
6
CONTINUOUS
10
514.0800000
20
851.5800000
11
514.0800000
21
841.4200000
0
LINE
8
Top_Silk
6
CONTINUOUS
10
507.7300000
20
845.2300000
11
510.2700000
21
845.2300000
0
LINE
8
Top_Silk
6
CONTINUOUS
10
510.2700000
20
847.7700000
11
507.7300000
21
847.7700000
0
INSERT
8
0
2
POLY_S4_L6_1218
10
0.0000000
20
0.0000000
41
1.0000000
42
1.0000000
43
1.0000000
50
0.0000000
0
CIRCLE
8
Top_Silk
6
CONTINUOUS
10
509.0000000
20
846.5000000
40
3.1750000
0
LINE
8
Top_Silk
6
CONTINUOUS
10
514.0800000
20
841.4200000
11
503.9200000
21
841.4200000
0
LINE
8
Top_Silk
6
CONTINUOUS
10
515.3500000
20
840.1500000
11
502.6500000
21
840.1500000
0
LINE
8
Top_Silk
6
CONTINUOUS
10
502.6500000
20
852.8500000
11
515.3500000
21
852.8500000
0
LINE
8
Top_Silk
6
CONTINUOUS
10
503.9200000
20
851.5800000
11
514.0800000
21
851.5800000
0
ENDBLK
0
BLOCK
2
KLIK_1228
8
0
70
0
10
0.0000000
20
0.0000000
0
LINE
8
Top_Silk
6
CONTINUOUS
10
530.2300000
20
813.7700000
11
530.2300000
21
811.2300000
0
LINE
8
Top_Silk
6
CONTINUOUS
10
532.7700000
20
811.2300000
11
532.7700000
21
813.7700000
0
LINE
8
Top_Silk
6
CONTINUOUS
10
525.1500000
20
806.1500000
11
525.1500000
21
818.8500000
0
LINE
8
Top_Silk
6
CONTINUOUS
10
526.4200000
20
807.4200000
11
526.4200000
21
817.5800000
0
LINE
8
Top_Silk
6
CONTINUOUS
10
537.8500000
20
818.8500000
11
537.8500000
21
806.1500000
0
LINE
8
Top_Silk
6
CONTINUOUS
10
536.5800000
20
817.5800000
11
536.5800000
21
807.4200000
0
LINE
8
Top_Silk
6
CONTINUOUS
10
530.2300000
20
811.2300000
11
532.7700000
21
811.2300000
0
LINE
8
Top_Silk
6
CONTINUOUS
10
532.7700000
20
813.7700000
11
530.2300000
21
813.7700000
0
INSERT
8
0
2
POLY_S4_L6_1242
10
0.0000000
20
0.0000000
41
1.0000000
42
1.0000000
43
1.0000000
50
0.0000000
0
CIRCLE
8
Top_Silk
6
CONTINUOUS
10
531.5000000
20
812.5000000
40
3.1750000
0
LINE
8
Top_Silk
6
CONTINUOUS
10
536.5800000
20
807.4200000
11
526.4200000
21
807.4200000
0
LINE
8
Top_Silk
6
CONTINUOUS
10
537.8500000
20
806.1500000
11
525.1500000
21
806.1500000
0
LINE
8
Top_Silk
6
CONTINUOUS
10
525.1500000
20
818.8500000
11
537.8500000
21
818.8500000
0
LINE
8
Top_Silk
6
CONTINUOUS
10
526.4200000
20
817.5800000
11
536.5800000
21
817.5800000
0
ENDBLK
0
BLOCK
2
KLIK_1252
8
0
70
0
10
0.0000000
20
0.0000000
0
LINE
8
Top_Silk
6
CONTINUOUS
10
534.7300000
20
847.7700000
11
534.7300000
21
845.2300000
0
LINE
8
Top_Silk
6
CONTINUOUS
10
537.2700000
20
845.2300000
11
537.2700000
21
847.7700000
0
LINE
8
Top_Silk
6
CONTINUOUS
10
529.6500000
20
840.1500000
11
529.6500000
21
852.8500000
0
LINE
8
Top_Silk
6
CONTINUOUS
10
530.9200000
20
841.4200000
11
530.9200000
21
851.5800000
0
LINE
8
Top_Silk
6
CONTINUOUS
10
542.3500000
20
852.8500000
11
542.3500000
21
840.1500000
0
LINE
8
Top_Silk
6
CONTINUOUS
10
541.0800000
20
851.5800000
11
541.0800000
21
841.4200000
0
LINE
8
Top_Silk
6
CONTINUOUS
10
534.7300000
20
845.2300000
11
537.2700000
21
845.2300000
0
LINE
8
Top_Silk
6
CONTINUOUS
10
537.2700000
20
847.7700000
11
534.7300000
21
847.7700000
0
INSERT
8
0
2
POLY_S4_L6_1266
10
0.0000000
20
0.0000000
41
1.0000000
42
1.0000000
43
1.0000000
50
0.0000000
0
CIRCLE
8
Top_Silk
6
CONTINUOUS
10
536.0000000
20
846.5000000
40
3.1750000
0
LINE
8
Top_Silk
6
CONTINUOUS
10
541.0800000
20
841.4200000
11
530.9200000
21
841.4200000
0
LINE
8
Top_Silk
6
CONTINUOUS
10
542.3500000
20
840.1500000
11
529.6500000
21
840.1500000
0
LINE
8
Top_Silk
6
CONTINUOUS
10
529.6500000
20
852.8500000
11
542.3500000
21
852.8500000
0
LINE
8
Top_Silk
6
CONTINUOUS
10
530.9200000
20
851.5800000
11
541.0800000
21
851.5800000
0
ENDBLK
0
BLOCK
2
KLIK_1276
8
0
70
0
10
0.0000000
20
0.0000000
0
LINE
8
Top_Silk
6
CONTINUOUS
10
564.2300000
20
813.7700000
11
564.2300000
21
811.2300000
0
LINE
8
Top_Silk
6
CONTINUOUS
10
566.7700000
20
811.2300000
11
566.7700000
21
813.7700000
0
LINE
8
Top_Silk
6
CONTINUOUS
10
559.1500000
20
806.1500000
11
559.1500000
21
818.8500000
0
LINE
8
Top_Silk
6
CONTINUOUS
10
560.4200000
20
807.4200000
11
560.4200000
21
817.5800000
0
LINE
8
Top_Silk
6
CONTINUOUS
10
571.8500000
20
818.8500000
11
571.8500000
21
806.1500000
0
LINE
8
Top_Silk
6
CONTINUOUS
10
570.5800000
20
817.5800000
11
570.5800000
21
807.4200000
0
LINE
8
Top_Silk
6
CONTINUOUS
10
564.2300000
20
811.2300000
11
566.7700000
21
811.2300000
0
LINE
8
Top_Silk
6
CONTINUOUS
10
566.7700000
20
813.7700000
11
564.2300000
21
813.7700000
0
INSERT
8
0
2
POLY_S4_L6_1290
10
0.0000000
20
0.0000000
41
1.0000000
42
1.0000000
43
1.0000000
50
0.0000000
0
CIRCLE
8
Top_Silk
6
CONTINUOUS
10
565.5000000
20
812.5000000
40
3.1750000
0
LINE
8
Top_Silk
6
CONTINUOUS
10
570.5800000
20
807.4200000
11
560.4200000
21
807.4200000
0
LINE
8
Top_Silk
6
CONTINUOUS
10
571.8500000
20
806.1500000
11
559.1500000
21
806.1500000
0
LINE
8
Top_Silk
6
CONTINUOUS
10
559.1500000
20
818.8500000
11
571.8500000
21
818.8500000
0
LINE
8
Top_Silk
6
CONTINUOUS
10
560.4200000
20
817.5800000
11
570.5800000
21
817.5800000
0
ENDBLK
0
BLOCK
2
KLIK_1300
8
0
70
0
10
0.0000000
20
0.0000000
0
LINE
8
Top_Silk
6
CONTINUOUS
10
561.7300000
20
847.7700000
11
561.7300000
21
845.2300000
0
LINE
8
Top_Silk
6
CONTINUOUS
10
564.2700000
20
845.2300000
11
564.2700000
21
847.7700000
0
LINE
8
Top_Silk
6
CONTINUOUS
10
556.6500000
20
840.1500000
11
556.6500000
21
852.8500000
0
LINE
8
Top_Silk
6
CONTINUOUS
10
557.9200000
20
841.4200000
11
557.9200000
21
851.5800000
0
LINE
8
Top_Silk
6
CONTINUOUS
10
569.3500000
20
852.8500000
11
569.3500000
21
840.1500000
0
LINE
8
Top_Silk
6
CONTINUOUS
10
568.0800000
20
851.5800000
11
568.0800000
21
841.4200000
0
LINE
8
Top_Silk
6
CONTINUOUS
10
561.7300000
20
845.2300000
11
564.2700000
21
845.2300000
0
LINE
8
Top_Silk
6
CONTINUOUS
10
564.2700000
20
847.7700000
11
561.7300000
21
847.7700000
0
INSERT
8
0
2
POLY_S4_L6_1314
10
0.0000000
20
0.0000000
41
1.0000000
42
1.0000000
43
1.0000000
50
0.0000000
0
CIRCLE
8
Top_Silk
6
CONTINUOUS
10
563.0000000
20
846.5000000
40
3.1750000
0
LINE
8
Top_Silk
6
CONTINUOUS
10
568.0800000
20
841.4200000
11
557.9200000
21
841.4200000
0
LINE
8
Top_Silk
6
CONTINUOUS
10
569.3500000
20
840.1500000
11
556.6500000
21
840.1500000
0
LINE
8
Top_Silk
6
CONTINUOUS
10
556.6500000
20
852.8500000
11
569.3500000
21
852.8500000
0
LINE
8
Top_Silk
6
CONTINUOUS
10
557.9200000
20
851.5800000
11
568.0800000
21
851.5800000
0
ENDBLK
0
BLOCK
2
D3M_1324
8
0
70
0
10
0.0000000
20
0.0000000
0
LINE
8
Top_Silk
6
CONTINUOUS
10
574.3250000
20
843.3250000
11
574.3250000
21
849.6750000
0
LINE
8
Top_Silk
6
CONTINUOUS
10
580.6750000
20
849.6750000
11
580.6750000
21
843.3250000
0
LINE
8
Top_Silk
6
CONTINUOUS
10
580.6750000
20
843.3250000
11
574.3250000
21
843.3250000
0
LINE
8
Top_Silk
6
CONTINUOUS
10
574.3250000
20
849.6750000
11
580.6750000
21
849.6750000
0
ENDBLK
0
BLOCK
2
D3M_1335
8
0
70
0
10
0.0000000
20
0.0000000
0
LINE
8
Top_Silk
6
CONTINUOUS
10
592.3250000
20
797.3250000
11
592.3250000
21
803.6750000
0
LINE
8
Top_Silk
6
CONTINUOUS
10
598.6750000
20
803.6750000
11
598.6750000
21
797.3250000
0
LINE
8
Top_Silk
6
CONTINUOUS
10
598.6750000
20
797.3250000
11
592.3250000
21
797.3250000
0
LINE
8
Top_Silk
6
CONTINUOUS
10
592.3250000
20
803.6750000
11
598.6750000
21
803.6750000
0
ENDBLK
0
BLOCK
2
D3M_1346
8
0
70
0
10
0.0000000
20
0.0000000
0
LINE
8
Top_Silk
6
CONTINUOUS
10
592.3250000
20
837.3250000
11
592.3250000
21
843.6750000
0
LINE
8
Top_Silk
6
CONTINUOUS
10
598.6750000
20
843.6750000
11
598.6750000
21
837.3250000
0
LINE
8
Top_Silk
6
CONTINUOUS
10
598.6750000
20
837.3250000
11
592.3250000
21
837.3250000
0
LINE
8
Top_Silk
6
CONTINUOUS
10
592.3250000
20
843.6750000
11
598.6750000
21
843.6750000
0
ENDBLK
0
BLOCK
2
BREKER_1357
8
0
70
0
10
0.0000000
20
0.0000000
0
ENDBLK
0
BLOCK
2
BREKER_1377
8
0
70
0
10
0.0000000
20
0.0000000
0
ENDBLK
0
BLOCK
2
BH20_1397
8
0
70
0
10
0.0000000
20
0.0000000
0
ENDBLK
0
BLOCK
2
KLIK_1438
8
0
70
0
10
0.0000000
20
0.0000000
0
LINE
8
Top_Silk
6
CONTINUOUS
10
479.2300000
20
796.7700000
11
479.2300000
21
794.2300000
0
LINE
8
Top_Silk
6
CONTINUOUS
10
481.7700000
20
794.2300000
11
481.7700000
21
796.7700000
0
LINE
8
Top_Silk
6
CONTINUOUS
10
474.1500000
20
789.1500000
11
474.1500000
21
801.8500000
0
LINE
8
Top_Silk
6
CONTINUOUS
10
475.4200000
20
790.4200000
11
475.4200000
21
800.5800000
0
LINE
8
Top_Silk
6
CONTINUOUS
10
486.8500000
20
801.8500000
11
486.8500000
21
789.1500000
0
LINE
8
Top_Silk
6
CONTINUOUS
10
485.5800000
20
800.5800000
11
485.5800000
21
790.4200000
0
LINE
8
Top_Silk
6
CONTINUOUS
10
479.2300000
20
794.2300000
11
481.7700000
21
794.2300000
0
LINE
8
Top_Silk
6
CONTINUOUS
10
481.7700000
20
796.7700000
11
479.2300000
21
796.7700000
0
INSERT
8
0
2
POLY_S4_L6_1452
10
0.0000000
20
0.0000000
41
1.0000000
42
1.0000000
43
1.0000000
50
0.0000000
0
CIRCLE
8
Top_Silk
6
CONTINUOUS
10
480.5000000
20
795.5000000
40
3.1750000
0
LINE
8
Top_Silk
6
CONTINUOUS
10
485.5800000
20
790.4200000
11
475.4200000
21
790.4200000
0
LINE
8
Top_Silk
6
CONTINUOUS
10
486.8500000
20
789.1500000
11
474.1500000
21
789.1500000
0
LINE
8
Top_Silk
6
CONTINUOUS
10
474.1500000
20
801.8500000
11
486.8500000
21
801.8500000
0
LINE
8
Top_Silk
6
CONTINUOUS
10
475.4200000
20
800.5800000
11
485.5800000
21
800.5800000
0
ENDBLK
0
BLOCK
2
KLIK_1462
8
0
70
0
10
0.0000000
20
0.0000000
0
LINE
8
Top_Silk
6
CONTINUOUS
10
479.2300000
20
830.7700000
11
479.2300000
21
828.2300000
0
LINE
8
Top_Silk
6
CONTINUOUS
10
481.7700000
20
828.2300000
11
481.7700000
21
830.7700000
0
LINE
8
Top_Silk
6
CONTINUOUS
10
474.1500000
20
823.1500000
11
474.1500000
21
835.8500000
0
LINE
8
Top_Silk
6
CONTINUOUS
10
475.4200000
20
824.4200000
11
475.4200000
21
834.5800000
0
LINE
8
Top_Silk
6
CONTINUOUS
10
486.8500000
20
835.8500000
11
486.8500000
21
823.1500000
0
LINE
8
Top_Silk
6
CONTINUOUS
10
485.5800000
20
834.5800000
11
485.5800000
21
824.4200000
0
LINE
8
Top_Silk
6
CONTINUOUS
10
479.2300000
20
828.2300000
11
481.7700000
21
828.2300000
0
LINE
8
Top_Silk
6
CONTINUOUS
10
481.7700000
20
830.7700000
11
479.2300000
21
830.7700000
0
INSERT
8
0
2
POLY_S4_L6_1476
10
0.0000000
20
0.0000000
41
1.0000000
42
1.0000000
43
1.0000000
50
0.0000000
0
CIRCLE
8
Top_Silk
6
CONTINUOUS
10
480.5000000
20
829.5000000
40
3.1750000
0
LINE
8
Top_Silk
6
CONTINUOUS
10
485.5800000
20
824.4200000
11
475.4200000
21
824.4200000
0
LINE
8
Top_Silk
6
CONTINUOUS
10
486.8500000
20
823.1500000
11
474.1500000
21
823.1500000
0
LINE
8
Top_Silk
6
CONTINUOUS
10
474.1500000
20
835.8500000
11
486.8500000
21
835.8500000
0
LINE
8
Top_Silk
6
CONTINUOUS
10
475.4200000
20
834.5800000
11
485.5800000
21
834.5800000
0
ENDBLK
0
BLOCK
2
KLIK_1486
8
0
70
0
10
0.0000000
20
0.0000000
0
LINE
8
Top_Silk
6
CONTINUOUS
10
530.2300000
20
830.7700000
11
530.2300000
21
828.2300000
0
LINE
8
Top_Silk
6
CONTINUOUS
10
532.7700000
20
828.2300000
11
532.7700000
21
830.7700000
0
LINE
8
Top_Silk
6
CONTINUOUS
10
525.1500000
20
823.1500000
11
525.1500000
21
835.8500000
0
LINE
8
Top_Silk
6
CONTINUOUS
10
526.4200000
20
824.4200000
11
526.4200000
21
834.5800000
0
LINE
8
Top_Silk
6
CONTINUOUS
10
537.8500000
20
835.8500000
11
537.8500000
21
823.1500000
0
LINE
8
Top_Silk
6
CONTINUOUS
10
536.5800000
20
834.5800000
11
536.5800000
21
824.4200000
0
LINE
8
Top_Silk
6
CONTINUOUS
10
530.2300000
20
828.2300000
11
532.7700000
21
828.2300000
0
LINE
8
Top_Silk
6
CONTINUOUS
10
532.7700000
20
830.7700000
11
530.2300000
21
830.7700000
0
INSERT
8
0
2
POLY_S4_L6_1500
10
0.0000000
20
0.0000000
41
1.0000000
42
1.0000000
43
1.0000000
50
0.0000000
0
CIRCLE
8
Top_Silk
6
CONTINUOUS
10
531.5000000
20
829.5000000
40
3.1750000
0
LINE
8
Top_Silk
6
CONTINUOUS
10
536.5800000
20
824.4200000
11
526.4200000
21
824.4200000
0
LINE
8
Top_Silk
6
CONTINUOUS
10
537.8500000
20
823.1500000
11
525.1500000
21
823.1500000
0
LINE
8
Top_Silk
6
CONTINUOUS
10
525.1500000
20
835.8500000
11
537.8500000
21
835.8500000
0
LINE
8
Top_Silk
6
CONTINUOUS
10
526.4200000
20
834.5800000
11
536.5800000
21
834.5800000
0
ENDBLK
0
BLOCK
2
KLIK_1510
8
0
70
0
10
0.0000000
20
0.0000000
0
LINE
8
Top_Silk
6
CONTINUOUS
10
530.2300000
20
796.7700000
11
530.2300000
21
794.2300000
0
LINE
8
Top_Silk
6
CONTINUOUS
10
532.7700000
20
794.2300000
11
532.7700000
21
796.7700000
0
LINE
8
Top_Silk
6
CONTINUOUS
10
525.1500000
20
789.1500000
11
525.1500000
21
801.8500000
0
LINE
8
Top_Silk
6
CONTINUOUS
10
526.4200000
20
790.4200000
11
526.4200000
21
800.5800000
0
LINE
8
Top_Silk
6
CONTINUOUS
10
537.8500000
20
801.8500000
11
537.8500000
21
789.1500000
0
LINE
8
Top_Silk
6
CONTINUOUS
10
536.5800000
20
800.5800000
11
536.5800000
21
790.4200000
0
LINE
8
Top_Silk
6
CONTINUOUS
10
530.2300000
20
794.2300000
11
532.7700000
21
794.2300000
0
LINE
8
Top_Silk
6
CONTINUOUS
10
532.7700000
20
796.7700000
11
530.2300000
21
796.7700000
0
INSERT
8
0
2
POLY_S4_L6_1524
10
0.0000000
20
0.0000000
41
1.0000000
42
1.0000000
43
1.0000000
50
0.0000000
0
CIRCLE
8
Top_Silk
6
CONTINUOUS
10
531.5000000
20
795.5000000
40
3.1750000
0
LINE
8
Top_Silk
6
CONTINUOUS
10
536.5800000
20
790.4200000
11
526.4200000
21
790.4200000
0
LINE
8
Top_Silk
6
CONTINUOUS
10
537.8500000
20
789.1500000
11
525.1500000
21
789.1500000
0
LINE
8
Top_Silk
6
CONTINUOUS
10
525.1500000
20
801.8500000
11
537.8500000
21
801.8500000
0
LINE
8
Top_Silk
6
CONTINUOUS
10
526.4200000
20
800.5800000
11
536.5800000
21
800.5800000
0
ENDBLK
0
BLOCK
2
KLIK_1534
8
0
70
0
10
0.0000000
20
0.0000000
0
LINE
8
Top_Silk
6
CONTINUOUS
10
564.2300000
20
796.7700000
11
564.2300000
21
794.2300000
0
LINE
8
Top_Silk
6
CONTINUOUS
10
566.7700000
20
794.2300000
11
566.7700000
21
796.7700000
0
LINE
8
Top_Silk
6
CONTINUOUS
10
559.1500000
20
789.1500000
11
559.1500000
21
801.8500000
0
LINE
8
Top_Silk
6
CONTINUOUS
10
560.4200000
20
790.4200000
11
560.4200000
21
800.5800000
0
LINE
8
Top_Silk
6
CONTINUOUS
10
571.8500000
20
801.8500000
11
571.8500000
21
789.1500000
0
LINE
8
Top_Silk
6
CONTINUOUS
10
570.5800000
20
800.5800000
11
570.5800000
21
790.4200000
0
LINE
8
Top_Silk
6
CONTINUOUS
10
564.2300000
20
794.2300000
11
566.7700000
21
794.2300000
0
LINE
8
Top_Silk
6
CONTINUOUS
10
566.7700000
20
796.7700000
11
564.2300000
21
796.7700000
0
INSERT
8
0
2
POLY_S4_L6_1548
10
0.0000000
20
0.0000000
41
1.0000000
42
1.0000000
43
1.0000000
50
0.0000000
0
CIRCLE
8
Top_Silk
6
CONTINUOUS
10
565.5000000
20
795.5000000
40
3.1750000
0
LINE
8
Top_Silk
6
CONTINUOUS
10
570.5800000
20
790.4200000
11
560.4200000
21
790.4200000
0
LINE
8
Top_Silk
6
CONTINUOUS
10
571.8500000
20
789.1500000
11
559.1500000
21
789.1500000
0
LINE
8
Top_Silk
6
CONTINUOUS
10
559.1500000
20
801.8500000
11
571.8500000
21
801.8500000
0
LINE
8
Top_Silk
6
CONTINUOUS
10
560.4200000
20
800.5800000
11
570.5800000
21
800.5800000
0
ENDBLK
0
BLOCK
2
KLIK_1558
8
0
70
0
10
0.0000000
20
0.0000000
0
LINE
8
Top_Silk
6
CONTINUOUS
10
564.2700000
20
830.6900000
11
564.2700000
21
828.1500000
0
LINE
8
Top_Silk
6
CONTINUOUS
10
566.8100000
20
828.1500000
11
566.8100000
21
830.6900000
0
LINE
8
Top_Silk
6
CONTINUOUS
10
559.1900000
20
823.0700000
11
559.1900000
21
835.7700000
0
LINE
8
Top_Silk
6
CONTINUOUS
10
560.4600000
20
824.3400000
11
560.4600000
21
834.5000000
0
LINE
8
Top_Silk
6
CONTINUOUS
10
571.8900000
20
835.7700000
11
571.8900000
21
823.0700000
0
LINE
8
Top_Silk
6
CONTINUOUS
10
570.6200000
20
834.5000000
11
570.6200000
21
824.3400000
0
LINE
8
Top_Silk
6
CONTINUOUS
10
564.2700000
20
828.1500000
11
566.8100000
21
828.1500000
0
LINE
8
Top_Silk
6
CONTINUOUS
10
566.8100000
20
830.6900000
11
564.2700000
21
830.6900000
0
INSERT
8
0
2
POLY_S4_L6_1572
10
0.0000000
20
0.0000000
41
1.0000000
42
1.0000000
43
1.0000000
50
0.0000000
0
CIRCLE
8
Top_Silk
6
CONTINUOUS
10
565.5400000
20
829.4200000
40
3.1750000
0
LINE
8
Top_Silk
6
CONTINUOUS
10
570.6200000
20
824.3400000
11
560.4600000
21
824.3400000
0
LINE
8
Top_Silk
6
CONTINUOUS
10
571.8900000
20
823.0700000
11
559.1900000
21
823.0700000
0
LINE
8
Top_Silk
6
CONTINUOUS
10
559.1900000
20
835.7700000
11
571.8900000
21
835.7700000
0
LINE
8
Top_Silk
6
CONTINUOUS
10
560.4600000
20
834.5000000
11
570.6200000
21
834.5000000
0
ENDBLK
0
BLOCK
2
MLT0125__1583
8
0
70
0
10
0.0000000
20
0.0000000
0
LINE
8
Top_Silk
6
CONTINUOUS
10
580.7710000
20
819.2770000
11
580.7710000
21
818.1340000
0
LINE
8
Top_Silk
6
CONTINUOUS
10
578.4850000
20
818.1340000
11
578.4850000
21
819.2770000
0
LINE
8
Top_Silk
6
CONTINUOUS
10
580.7710000
20
824.2300000
11
580.7710000
21
823.0870000
0
LINE
8
Top_Silk
6
CONTINUOUS
10
578.4850000
20
823.0870000
11
578.4850000
21
824.2300000
0
LINE
8
Top_Silk
6
CONTINUOUS
10
579.2470000
20
824.2300000
11
578.4850000
21
824.2300000
0
LINE
8
Top_Silk
6
CONTINUOUS
10
579.6280000
20
818.0070000
11
579.6280000
21
816.1020000
0
LINE
8
Top_Silk
6
CONTINUOUS
10
580.7710000
20
818.1340000
11
578.4850000
21
818.1340000
0
LINE
8
Top_Silk
6
CONTINUOUS
10
579.6280000
20
824.2299900
11
579.2470000
21
824.2300000
0
LINE
8
Top_Silk
6
CONTINUOUS
10
579.6280000
20
824.3570000
11
579.6280000
21
826.2619900
0
LINE
8
Top_Silk
6
CONTINUOUS
10
579.6280000
20
824.2299900
11
580.7710000
21
824.2300000
0
LINE
8
Top_Silk
6
CONTINUOUS
10
580.7710000
20
819.2770000
11
580.7710000
21
823.0870000
0
LINE
8
Top_Silk
6
CONTINUOUS
10
578.4850000
20
819.2770000
11
578.4850000
21
823.0870000
0
ENDBLK
0
BLOCK
2
MLT0125__1605
8
0
70
0
10
0.0000000
20
0.0000000
0
LINE
8
Top_Silk
6
CONTINUOUS
10
605.5412900
20
796.7108400
11
604.7330600
21
795.9026200
0
LINE
8
Top_Silk
6
CONTINUOUS
10
603.1166200
20
797.5190600
11
603.9248400
21
798.3272900
0
LINE
8
Top_Silk
6
CONTINUOUS
10
609.0435900
20
800.2131400
11
608.2353600
21
799.4049200
0
LINE
8
Top_Silk
6
CONTINUOUS
10
606.6189200
20
801.0213600
11
607.4271400
21
801.8295900
0
LINE
8
Top_Silk
6
CONTINUOUS
10
607.9659600
20
801.2907700
11
607.4271400
21
801.8295900
0
LINE
8
Top_Silk
6
CONTINUOUS
10
603.8350400
20
796.6210400
11
602.4880000
21
795.2740000
0
LINE
8
Top_Silk
6
CONTINUOUS
10
604.7330600
20
795.9026200
11
603.1166200
21
797.5190600
0
LINE
8
Top_Silk
6
CONTINUOUS
10
608.2353600
20
801.0213600
11
607.9659600
21
801.2907700
0
LINE
8
Top_Silk
6
CONTINUOUS
10
608.3251700
20
801.1111700
11
609.6722000
21
802.4582000
0
LINE
8
Top_Silk
6
CONTINUOUS
10
608.2353600
20
801.0213600
11
609.0435900
21
800.2131400
0
LINE
8
Top_Silk
6
CONTINUOUS
10
605.5412900
20
796.7108400
11
608.2353600
21
799.4049200
0
LINE
8
Top_Silk
6
CONTINUOUS
10
603.9248400
20
798.3272900
11
606.6189200
21
801.0213600
0
ENDBLK
0
BLOCK
2
KLIK_1626
8
0
70
0
10
0.0000000
20
0.0000000
0
LINE
8
Top_Silk
6
CONTINUOUS
10
426.2300000
20
813.7700000
11
426.2300000
21
811.2300000
0
LINE
8
Top_Silk
6
CONTINUOUS
10
428.7700000
20
811.2300000
11
428.7700000
21
813.7700000
0
LINE
8
Top_Silk
6
CONTINUOUS
10
421.1500000
20
806.1500000
11
421.1500000
21
818.8500000
0
LINE
8
Top_Silk
6
CONTINUOUS
10
422.4200000
20
807.4200000
11
422.4200000
21
817.5800000
0
LINE
8
Top_Silk
6
CONTINUOUS
10
433.8500000
20
818.8500000
11
433.8500000
21
806.1500000
0
LINE
8
Top_Silk
6
CONTINUOUS
10
432.5800000
20
817.5800000
11
432.5800000
21
807.4200000
0
LINE
8
Top_Silk
6
CONTINUOUS
10
426.2300000
20
811.2300000
11
428.7700000
21
811.2300000
0
LINE
8
Top_Silk
6
CONTINUOUS
10
428.7700000
20
813.7700000
11
426.2300000
21
813.7700000
0
INSERT
8
0
2
POLY_S4_L6_1640
10
0.0000000
20
0.0000000
41
1.0000000
42
1.0000000
43
1.0000000
50
0.0000000
0
CIRCLE
8
Top_Silk
6
CONTINUOUS
10
427.5000000
20
812.5000000
40
3.1750000
0
LINE
8
Top_Silk
6
CONTINUOUS
10
432.5800000
20
807.4200000
11
422.4200000
21
807.4200000
0
LINE
8
Top_Silk
6
CONTINUOUS
10
433.8500000
20
806.1500000
11
421.1500000
21
806.1500000
0
LINE
8
Top_Silk
6
CONTINUOUS
10
421.1500000
20
818.8500000
11
433.8500000
21
818.8500000
0
LINE
8
Top_Silk
6
CONTINUOUS
10
422.4200000
20
817.5800000
11
432.5800000
21
817.5800000
0
ENDBLK
0
BLOCK
2
KLIK_1650
8
0
70
0
10
0.0000000
20
0.0000000
0
LINE
8
Top_Silk
6
CONTINUOUS
10
496.2300000
20
813.7700000
11
496.2300000
21
811.2300000
0
LINE
8
Top_Silk
6
CONTINUOUS
10
498.7700000
20
811.2300000
11
498.7700000
21
813.7700000
0
LINE
8
Top_Silk
6
CONTINUOUS
10
491.1500000
20
806.1500000
11
491.1500000
21
818.8500000
0
LINE
8
Top_Silk
6
CONTINUOUS
10
492.4200000
20
807.4200000
11
492.4200000
21
817.5800000
0
LINE
8
Top_Silk
6
CONTINUOUS
10
503.8500000
20
818.8500000
11
503.8500000
21
806.1500000
0
LINE
8
Top_Silk
6
CONTINUOUS
10
502.5800000
20
817.5800000
11
502.5800000
21
807.4200000
0
LINE
8
Top_Silk
6
CONTINUOUS
10
496.2300000
20
811.2300000
11
498.7700000
21
811.2300000
0
LINE
8
Top_Silk
6
CONTINUOUS
10
498.7700000
20
813.7700000
11
496.2300000
21
813.7700000
0
INSERT
8
0
2
POLY_S4_L6_1664
10
0.0000000
20
0.0000000
41
1.0000000
42
1.0000000
43
1.0000000
50
0.0000000
0
CIRCLE
8
Top_Silk
6
CONTINUOUS
10
497.5000000
20
812.5000000
40
3.1750000
0
LINE
8
Top_Silk
6
CONTINUOUS
10
502.5800000
20
807.4200000
11
492.4200000
21
807.4200000
0
LINE
8
Top_Silk
6
CONTINUOUS
10
503.8500000
20
806.1500000
11
491.1500000
21
806.1500000
0
LINE
8
Top_Silk
6
CONTINUOUS
10
491.1500000
20
818.8500000
11
503.8500000
21
818.8500000
0
LINE
8
Top_Silk
6
CONTINUOUS
10
492.4200000
20
817.5800000
11
502.5800000
21
817.5800000
0
ENDBLK
0
BLOCK
2
SW_CI11_SK_1674
8
0
70
0
10
0.0000000
20
0.0000000
0
LINE
8
Top_Silk
6
CONTINUOUS
10
400.6400000
20
853.4200000
11
400.6400000
21
848.4200000
0
LINE
8
Top_Silk
6
CONTINUOUS
10
403.0400000
20
853.4200000
11
400.6400000
21
853.4200000
0
LINE
8
Top_Silk
6
CONTINUOUS
10
412.4400000
20
853.4200000
11
412.4400000
21
848.4200000
0
LINE
8
Top_Silk
6
CONTINUOUS
10
410.0400000
20
853.4200000
11
412.4400000
21
853.4200000
0
LINE
8
Top_Silk
6
CONTINUOUS
10
400.6400000
20
844.4200000
11
400.6400000
21
838.9200000
0
LINE
8
Top_Silk
6
CONTINUOUS
10
400.6400000
20
838.9200000
11
403.0400000
21
838.9200000
0
LINE
8
Top_Silk
6
CONTINUOUS
10
407.8400000
20
849.1200000
11
407.8400000
21
843.7200000
0
LINE
8
Top_Silk
6
CONTINUOUS
10
412.4400000
20
844.4200000
11
412.4400000
21
838.9200000
0
LINE
8
Top_Silk
6
CONTINUOUS
10
412.4400000
20
838.9200000
11
410.0400000
21
838.9200000
0
LINE
8
Top_Silk
6
CONTINUOUS
10
405.0400000
20
853.4200000
11
408.0400000
21
853.4200000
0
CIRCLE
8
Top_Silk
6
CONTINUOUS
10
406.5400000
20
846.4200000
40
3.5000000
0
CIRCLE
8
Top_Silk
6
CONTINUOUS
10
406.5400000
20
846.4200000
40
3.0000000
0
CIRCLE
8
Top_Silk
6
CONTINUOUS
10
406.5400000
20
846.4200000
40
5.0000000
0
ENDBLK
0
BLOCK
2
D3M_1700
8
0
70
0
10
0.0000000
20
0.0000000
0
LINE
8
Top_Silk
6
CONTINUOUS
10
424.3650000
20
843.2450000
11
424.3650000
21
849.5950000
0
LINE
8
Top_Silk
6
CONTINUOUS
10
430.7150000
20
849.5950000
11
430.7150000
21
843.2450000
0
LINE
8
Top_Silk
6
CONTINUOUS
10
430.7150000
20
843.2450000
11
424.3650000
21
843.2450000
0
LINE
8
Top_Silk
6
CONTINUOUS
10
424.3650000
20
849.5950000
11
430.7150000
21
849.5950000
0
ENDBLK
0
BLOCK
2
D3M_1711
8
0
70
0
10
0.0000000
20
0.0000000
0
LINE
8
Top_Silk
6
CONTINUOUS
10
519.3650000
20
781.2450000
11
519.3650000
21
787.5950000
0
LINE
8
Top_Silk
6
CONTINUOUS
10
525.7150000
20
787.5950000
11
525.7150000
21
781.2450000
0
LINE
8
Top_Silk
6
CONTINUOUS
10
525.7150000
20
781.2450000
11
519.3650000
21
781.2450000
0
LINE
8
Top_Silk
6
CONTINUOUS
10
519.3650000
20
787.5950000
11
525.7150000
21
787.5950000
0
ENDBLK
0
BLOCK
2
KLIK_1722
8
0
70
0
10
0.0000000
20
0.0000000
0
LINE
8
Top_Silk
6
CONTINUOUS
10
513.2300000
20
813.7700000
11
513.2300000
21
811.2300000
0
LINE
8
Top_Silk
6
CONTINUOUS
10
515.7700000
20
811.2300000
11
515.7700000
21
813.7700000
0
LINE
8
Top_Silk
6
CONTINUOUS
10
508.1500000
20
806.1500000
11
508.1500000
21
818.8500000
0
LINE
8
Top_Silk
6
CONTINUOUS
10
509.4200000
20
807.4200000
11
509.4200000
21
817.5800000
0
LINE
8
Top_Silk
6
CONTINUOUS
10
520.8500000
20
818.8500000
11
520.8500000
21
806.1500000
0
LINE
8
Top_Silk
6
CONTINUOUS
10
519.5800000
20
817.5800000
11
519.5800000
21
807.4200000
0
LINE
8
Top_Silk
6
CONTINUOUS
10
513.2300000
20
811.2300000
11
515.7700000
21
811.2300000
0
LINE
8
Top_Silk
6
CONTINUOUS
10
515.7700000
20
813.7700000
11
513.2300000
21
813.7700000
0
INSERT
8
0
2
POLY_S4_L6_1736
10
0.0000000
20
0.0000000
41
1.0000000
42
1.0000000
43
1.0000000
50
0.0000000
0
CIRCLE
8
Top_Silk
6
CONTINUOUS
10
514.5000000
20
812.5000000
40
3.1750000
0
LINE
8
Top_Silk
6
CONTINUOUS
10
519.5800000
20
807.4200000
11
509.4200000
21
807.4200000
0
LINE
8
Top_Silk
6
CONTINUOUS
10
520.8500000
20
806.1500000
11
508.1500000
21
806.1500000
0
LINE
8
Top_Silk
6
CONTINUOUS
10
508.1500000
20
818.8500000
11
520.8500000
21
818.8500000
0
LINE
8
Top_Silk
6
CONTINUOUS
10
509.4200000
20
817.5800000
11
519.5800000
21
817.5800000
0
ENDBLK
0
BLOCK
2
KLIK_1746
8
0
70
0
10
0.0000000
20
0.0000000
0
LINE
8
Top_Silk
6
CONTINUOUS
10
547.2300000
20
813.7700000
11
547.2300000
21
811.2300000
0
LINE
8
Top_Silk
6
CONTINUOUS
10
549.7700000
20
811.2300000
11
549.7700000
21
813.7700000
0
LINE
8
Top_Silk
6
CONTINUOUS
10
542.1500000
20
806.1500000
11
542.1500000
21
818.8500000
0
LINE
8
Top_Silk
6
CONTINUOUS
10
543.4200000
20
807.4200000
11
543.4200000
21
817.5800000
0
LINE
8
Top_Silk
6
CONTINUOUS
10
554.8500000
20
818.8500000
11
554.8500000
21
806.1500000
0
LINE
8
Top_Silk
6
CONTINUOUS
10
553.5800000
20
817.5800000
11
553.5800000
21
807.4200000
0
LINE
8
Top_Silk
6
CONTINUOUS
10
547.2300000
20
811.2300000
11
549.7700000
21
811.2300000
0
LINE
8
Top_Silk
6
CONTINUOUS
10
549.7700000
20
813.7700000
11
547.2300000
21
813.7700000
0
INSERT
8
0
2
POLY_S4_L6_1760
10
0.0000000
20
0.0000000
41
1.0000000
42
1.0000000
43
1.0000000
50
0.0000000
0
CIRCLE
8
Top_Silk
6
CONTINUOUS
10
548.5000000
20
812.5000000
40
3.1750000
0
LINE
8
Top_Silk
6
CONTINUOUS
10
553.5800000
20
807.4200000
11
543.4200000
21
807.4200000
0
LINE
8
Top_Silk
6
CONTINUOUS
10
554.8500000
20
806.1500000
11
542.1500000
21
806.1500000
0
LINE
8
Top_Silk
6
CONTINUOUS
10
542.1500000
20
818.8500000
11
554.8500000
21
818.8500000
0
LINE
8
Top_Silk
6
CONTINUOUS
10
543.4200000
20
817.5800000
11
553.5800000
21
817.5800000
0
ENDBLK
0
BLOCK
2
D3M_1770
8
0
70
0
10
0.0000000
20
0.0000000
0
LINE
8
Top_Silk
6
CONTINUOUS
10
582.3650000
20
817.2450000
11
582.3650000
21
823.5950000
0
LINE
8
Top_Silk
6
CONTINUOUS
10
588.7150000
20
823.5950000
11
588.7150000
21
817.2450000
0
LINE
8
Top_Silk
6
CONTINUOUS
10
588.7150000
20
817.2450000
11
582.3650000
21
817.2450000
0
LINE
8
Top_Silk
6
CONTINUOUS
10
582.3650000
20
823.5950000
11
588.7150000
21
823.5950000
0
ENDBLK
0
BLOCK
2
D3M_1781
8
0
70
0
10
0.0000000
20
0.0000000
0
LINE
8
Top_Silk
6
CONTINUOUS
10
612.3250000
20
797.3250000
11
612.3250000
21
803.6750000
0
LINE
8
Top_Silk
6
CONTINUOUS
10
618.6750000
20
803.6750000
11
618.6750000
21
797.3250000
0
LINE
8
Top_Silk
6
CONTINUOUS
10
618.6750000
20
797.3250000
11
612.3250000
21
797.3250000
0
LINE
8
Top_Silk
6
CONTINUOUS
10
612.3250000
20
803.6750000
11
618.6750000
21
803.6750000
0
ENDBLK
0
BLOCK
2
D3M_1792
8
0
70
0
10
0.0000000
20
0.0000000
0
LINE
8
Top_Silk
6
CONTINUOUS
10
612.3250000
20
837.3250000
11
612.3250000
21
843.6750000
0
LINE
8
Top_Silk
6
CONTINUOUS
10
618.6750000
20
843.6750000
11
618.6750000
21
837.3250000
0
LINE
8
Top_Silk
6
CONTINUOUS
10
618.6750000
20
837.3250000
11
612.3250000
21
837.3250000
0
LINE
8
Top_Silk
6
CONTINUOUS
10
612.3250000
20
843.6750000
11
618.6750000
21
843.6750000
0
ENDBLK
0
BLOCK
2
D3M_1803
8
0
70
0
10
0.0000000
20
0.0000000
0
LINE
8
Top_Silk
6
CONTINUOUS
10
519.3650000
20
837.2450000
11
519.3650000
21
843.5950000
0
LINE
8
Top_Silk
6
CONTINUOUS
10
525.7150000
20
843.5950000
11
525.7150000
21
837.2450000
0
LINE
8
Top_Silk
6
CONTINUOUS
10
525.7150000
20
837.2450000
11
519.3650000
21
837.2450000
0
LINE
8
Top_Silk
6
CONTINUOUS
10
519.3650000
20
843.5950000
11
525.7150000
21
843.5950000
0
ENDBLK
0
BLOCK
2
KLIK_1814
8
0
70
0
10
0.0000000
20
0.0000000
0
LINE
8
Top_Silk
6
CONTINUOUS
10
496.2300000
20
796.7700000
11
496.2300000
21
794.2300000
0
LINE
8
Top_Silk
6
CONTINUOUS
10
498.7700000
20
794.2300000
11
498.7700000
21
796.7700000
0
LINE
8
Top_Silk
6
CONTINUOUS
10
491.1500000
20
789.1500000
11
491.1500000
21
801.8500000
0
LINE
8
Top_Silk
6
CONTINUOUS
10
492.4200000
20
790.4200000
11
492.4200000
21
800.5800000
0
LINE
8
Top_Silk
6
CONTINUOUS
10
503.8500000
20
801.8500000
11
503.8500000
21
789.1500000
0
LINE
8
Top_Silk
6
CONTINUOUS
10
502.5800000
20
800.5800000
11
502.5800000
21
790.4200000
0
LINE
8
Top_Silk
6
CONTINUOUS
10
496.2300000
20
794.2300000
11
498.7700000
21
794.2300000
0
LINE
8
Top_Silk
6
CONTINUOUS
10
498.7700000
20
796.7700000
11
496.2300000
21
796.7700000
0
INSERT
8
0
2
POLY_S4_L6_1828
10
0.0000000
20
0.0000000
41
1.0000000
42
1.0000000
43
1.0000000
50
0.0000000
0
CIRCLE
8
Top_Silk
6
CONTINUOUS
10
497.5000000
20
795.5000000
40
3.1750000
0
LINE
8
Top_Silk
6
CONTINUOUS
10
502.5800000
20
790.4200000
11
492.4200000
21
790.4200000
0
LINE
8
Top_Silk
6
CONTINUOUS
10
503.8500000
20
789.1500000
11
491.1500000
21
789.1500000
0
LINE
8
Top_Silk
6
CONTINUOUS
10
491.1500000
20
801.8500000
11
503.8500000
21
801.8500000
0
LINE
8
Top_Silk
6
CONTINUOUS
10
492.4200000
20
800.5800000
11
502.5800000
21
800.5800000
0
ENDBLK
0
BLOCK
2
KLIK_1838
8
0
70
0
10
0.0000000
20
0.0000000
0
LINE
8
Top_Silk
6
CONTINUOUS
10
496.2300000
20
830.7700000
11
496.2300000
21
828.2300000
0
LINE
8
Top_Silk
6
CONTINUOUS
10
498.7700000
20
828.2300000
11
498.7700000
21
830.7700000
0
LINE
8
Top_Silk
6
CONTINUOUS
10
491.1500000
20
823.1500000
11
491.1500000
21
835.8500000
0
LINE
8
Top_Silk
6
CONTINUOUS
10
492.4200000
20
824.4200000
11
492.4200000
21
834.5800000
0
LINE
8
Top_Silk
6
CONTINUOUS
10
503.8500000
20
835.8500000
11
503.8500000
21
823.1500000
0
LINE
8
Top_Silk
6
CONTINUOUS
10
502.5800000
20
834.5800000
11
502.5800000
21
824.4200000
0
LINE
8
Top_Silk
6
CONTINUOUS
10
496.2300000
20
828.2300000
11
498.7700000
21
828.2300000
0
LINE
8
Top_Silk
6
CONTINUOUS
10
498.7700000
20
830.7700000
11
496.2300000
21
830.7700000
0
INSERT
8
0
2
POLY_S4_L6_1852
10
0.0000000
20
0.0000000
41
1.0000000
42
1.0000000
43
1.0000000
50
0.0000000
0
CIRCLE
8
Top_Silk
6
CONTINUOUS
10
497.5000000
20
829.5000000
40
3.1750000
0
LINE
8
Top_Silk
6
CONTINUOUS
10
502.5800000
20
824.4200000
11
492.4200000
21
824.4200000
0
LINE
8
Top_Silk
6
CONTINUOUS
10
503.8500000
20
823.1500000
11
491.1500000
21
823.1500000
0
LINE
8
Top_Silk
6
CONTINUOUS
10
491.1500000
20
835.8500000
11
503.8500000
21
835.8500000
0
LINE
8
Top_Silk
6
CONTINUOUS
10
492.4200000
20
834.5800000
11
502.5800000
21
834.5800000
0
ENDBLK
0
BLOCK
2
KLIK_1862
8
0
70
0
10
0.0000000
20
0.0000000
0
LINE
8
Top_Silk
6
CONTINUOUS
10
513.2300000
20
796.7700000
11
513.2300000
21
794.2300000
0
LINE
8
Top_Silk
6
CONTINUOUS
10
515.7700000
20
794.2300000
11
515.7700000
21
796.7700000
0
LINE
8
Top_Silk
6
CONTINUOUS
10
508.1500000
20
789.1500000
11
508.1500000
21
801.8500000
0
LINE
8
Top_Silk
6
CONTINUOUS
10
509.4200000
20
790.4200000
11
509.4200000
21
800.5800000
0
LINE
8
Top_Silk
6
CONTINUOUS
10
520.8500000
20
801.8500000
11
520.8500000
21
789.1500000
0
LINE
8
Top_Silk
6
CONTINUOUS
10
519.5800000
20
800.5800000
11
519.5800000
21
790.4200000
0
LINE
8
Top_Silk
6
CONTINUOUS
10
513.2300000
20
794.2300000
11
515.7700000
21
794.2300000
0
LINE
8
Top_Silk
6
CONTINUOUS
10
515.7700000
20
796.7700000
11
513.2300000
21
796.7700000
0
INSERT
8
0
2
POLY_S4_L6_1876
10
0.0000000
20
0.0000000
41
1.0000000
42
1.0000000
43
1.0000000
50
0.0000000
0
CIRCLE
8
Top_Silk
6
CONTINUOUS
10
514.5000000
20
795.5000000
40
3.1750000
0
LINE
8
Top_Silk
6
CONTINUOUS
10
519.5800000
20
790.4200000
11
509.4200000
21
790.4200000
0
LINE
8
Top_Silk
6
CONTINUOUS
10
520.8500000
20
789.1500000
11
508.1500000
21
789.1500000
0
LINE
8
Top_Silk
6
CONTINUOUS
10
508.1500000
20
801.8500000
11
520.8500000
21
801.8500000
0
LINE
8
Top_Silk
6
CONTINUOUS
10
509.4200000
20
800.5800000
11
519.5800000
21
800.5800000
0
ENDBLK
0
BLOCK
2
KLIK_1886
8
0
70
0
10
0.0000000
20
0.0000000
0
LINE
8
Top_Silk
6
CONTINUOUS
10
547.2300000
20
796.7700000
11
547.2300000
21
794.2300000
0
LINE
8
Top_Silk
6
CONTINUOUS
10
549.7700000
20
794.2300000
11
549.7700000
21
796.7700000
0
LINE
8
Top_Silk
6
CONTINUOUS
10
542.1500000
20
789.1500000
11
542.1500000
21
801.8500000
0
LINE
8
Top_Silk
6
CONTINUOUS
10
543.4200000
20
790.4200000
11
543.4200000
21
800.5800000
0
LINE
8
Top_Silk
6
CONTINUOUS
10
554.8500000
20
801.8500000
11
554.8500000
21
789.1500000
0
LINE
8
Top_Silk
6
CONTINUOUS
10
553.5800000
20
800.5800000
11
553.5800000
21
790.4200000
0
LINE
8
Top_Silk
6
CONTINUOUS
10
547.2300000
20
794.2300000
11
549.7700000
21
794.2300000
0
LINE
8
Top_Silk
6
CONTINUOUS
10
549.7700000
20
796.7700000
11
547.2300000
21
796.7700000
0
INSERT
8
0
2
POLY_S4_L6_1900
10
0.0000000
20
0.0000000
41
1.0000000
42
1.0000000
43
1.0000000
50
0.0000000
0
CIRCLE
8
Top_Silk
6
CONTINUOUS
10
548.5000000
20
795.5000000
40
3.1750000
0
LINE
8
Top_Silk
6
CONTINUOUS
10
553.5800000
20
790.4200000
11
543.4200000
21
790.4200000
0
LINE
8
Top_Silk
6
CONTINUOUS
10
554.8500000
20
789.1500000
11
542.1500000
21
789.1500000
0
LINE
8
Top_Silk
6
CONTINUOUS
10
542.1500000
20
801.8500000
11
554.8500000
21
801.8500000
0
LINE
8
Top_Silk
6
CONTINUOUS
10
543.4200000
20
800.5800000
11
553.5800000
21
800.5800000
0
ENDBLK
0
BLOCK
2
KLIK_1910
8
0
70
0
10
0.0000000
20
0.0000000
0
LINE
8
Top_Silk
6
CONTINUOUS
10
547.2300000
20
830.7700000
11
547.2300000
21
828.2300000
0
LINE
8
Top_Silk
6
CONTINUOUS
10
549.7700000
20
828.2300000
11
549.7700000
21
830.7700000
0
LINE
8
Top_Silk
6
CONTINUOUS
10
542.1500000
20
823.1500000
11
542.1500000
21
835.8500000
0
LINE
8
Top_Silk
6
CONTINUOUS
10
543.4200000
20
824.4200000
11
543.4200000
21
834.5800000
0
LINE
8
Top_Silk
6
CONTINUOUS
10
554.8500000
20
835.8500000
11
554.8500000
21
823.1500000
0
LINE
8
Top_Silk
6
CONTINUOUS
10
553.5800000
20
834.5800000
11
553.5800000
21
824.4200000
0
LINE
8
Top_Silk
6
CONTINUOUS
10
547.2300000
20
828.2300000
11
549.7700000
21
828.2300000
0
LINE
8
Top_Silk
6
CONTINUOUS
10
549.7700000
20
830.7700000
11
547.2300000
21
830.7700000
0
INSERT
8
0
2
POLY_S4_L6_1924
10
0.0000000
20
0.0000000
41
1.0000000
42
1.0000000
43
1.0000000
50
0.0000000
0
CIRCLE
8
Top_Silk
6
CONTINUOUS
10
548.5000000
20
829.5000000
40
3.1750000
0
LINE
8
Top_Silk
6
CONTINUOUS
10
553.5800000
20
824.4200000
11
543.4200000
21
824.4200000
0
LINE
8
Top_Silk
6
CONTINUOUS
10
554.8500000
20
823.1500000
11
542.1500000
21
823.1500000
0
LINE
8
Top_Silk
6
CONTINUOUS
10
542.1500000
20
835.8500000
11
554.8500000
21
835.8500000
0
LINE
8
Top_Silk
6
CONTINUOUS
10
543.4200000
20
834.5800000
11
553.5800000
21
834.5800000
0
ENDBLK
0
BLOCK
2
KLIK_1934
8
0
70
0
10
0.0000000
20
0.0000000
0
LINE
8
Top_Silk
6
CONTINUOUS
10
513.2300000
20
830.7700000
11
513.2300000
21
828.2300000
0
LINE
8
Top_Silk
6
CONTINUOUS
10
515.7700000
20
828.2300000
11
515.7700000
21
830.7700000
0
LINE
8
Top_Silk
6
CONTINUOUS
10
508.1500000
20
823.1500000
11
508.1500000
21
835.8500000
0
LINE
8
Top_Silk
6
CONTINUOUS
10
509.4200000
20
824.4200000
11
509.4200000
21
834.5800000
0
LINE
8
Top_Silk
6
CONTINUOUS
10
520.8500000
20
835.8500000
11
520.8500000
21
823.1500000
0
LINE
8
Top_Silk
6
CONTINUOUS
10
519.5800000
20
834.5800000
11
519.5800000
21
824.4200000
0
LINE
8
Top_Silk
6
CONTINUOUS
10
513.2300000
20
828.2300000
11
515.7700000
21
828.2300000
0
LINE
8
Top_Silk
6
CONTINUOUS
10
515.7700000
20
830.7700000
11
513.2300000
21
830.7700000
0
INSERT
8
0
2
POLY_S4_L6_1948
10
0.0000000
20
0.0000000
41
1.0000000
42
1.0000000
43
1.0000000
50
0.0000000
0
CIRCLE
8
Top_Silk
6
CONTINUOUS
10
514.5000000
20
829.5000000
40
3.1750000
0
LINE
8
Top_Silk
6
CONTINUOUS
10
519.5800000
20
824.4200000
11
509.4200000
21
824.4200000
0
LINE
8
Top_Silk
6
CONTINUOUS
10
520.8500000
20
823.1500000
11
508.1500000
21
823.1500000
0
LINE
8
Top_Silk
6
CONTINUOUS
10
508.1500000
20
835.8500000
11
520.8500000
21
835.8500000
0
LINE
8
Top_Silk
6
CONTINUOUS
10
509.4200000
20
834.5800000
11
519.5800000
21
834.5800000
0
ENDBLK
0
BLOCK
2
R_SK_J1_1958
8
0
70
0
10
0.0000000
20
0.0000000
0
LINE
8
Top_Silk
6
CONTINUOUS
10
602.2500000
20
808.6500000
11
602.2500000
21
811.3500000
0
LINE
8
Top_Silk
6
CONTINUOUS
10
604.6000000
20
810.3500000
11
604.6000000
21
808.5500000
0
LINE
8
Top_Silk
6
CONTINUOUS
10
606.4000000
20
808.5500000
11
606.4000000
21
810.3500000
0
LINE
8
Top_Silk
6
CONTINUOUS
10
608.7500000
20
808.6500000
11
608.7500000
21
811.3500000
0
LINE
8
Top_Silk
6
CONTINUOUS
10
604.6000000
20
808.5500000
11
606.4000000
21
808.5500000
0
LINE
8
Top_Silk
6
CONTINUOUS
10
603.1500000
20
807.7000000
11
607.9000000
21
807.7000000
0
LINE
8
Top_Silk
6
CONTINUOUS
10
606.4000000
20
810.3500000
11
604.6000000
21
810.3500000
0
ARC
8
Top_Silk
6
CONTINUOUS
10
605.5000000
20
820.5000000
40
9.4045200
50
45.0000000
51
225.0000000
0
ARC
8
Top_Silk
6
CONTINUOUS
10
605.5000000
20
820.5000000
40
9.4045200
50
225.0000000
51
45.0000000
0
ENDBLK
0
BLOCK
2
CON_USB_A1_1987
8
0
70
0
10
0.0000000
20
0.0000000
0
LINE
8
Top_Silk
6
CONTINUOUS
10
601.3900000
20
850.8800000
11
601.3900000
21
851.3800000
0
LINE
8
Top_Silk
6
CONTINUOUS
10
599.8900000
20
855.8800000
11
599.8900000
21
856.3800000
0
LINE
8
Top_Silk
6
CONTINUOUS
10
609.3900000
20
851.3800000
11
609.3900000
21
850.8800000
0
LINE
8
Top_Silk
6
CONTINUOUS
10
610.8900000
20
850.8800000
11
610.8900000
21
851.3800000
0
LINE
8
Top_Silk
6
CONTINUOUS
10
612.8900000
20
856.3800000
11
612.8900000
21
855.8800000
0
LINE
8
Top_Silk
6
CONTINUOUS
10
599.3900000
20
854.8800000
11
599.3900000
21
856.8800000
0
LINE
8
Top_Silk
6
CONTINUOUS
10
598.8900000
20
854.8800000
11
598.8900000
21
853.8800000
0
LINE
8
Top_Silk
6
CONTINUOUS
10
613.3900000
20
856.8800000
11
613.3900000
21
854.8800000
0
LINE
8
Top_Silk
6
CONTINUOUS
10
613.8900000
20
854.8800000
11
613.8900000
21
853.8800000
0
LINE
8
Top_Silk
6
CONTINUOUS
10
598.3900000
20
850.8800000
11
598.3900000
21
857.8800000
0
LINE
8
Top_Silk
6
CONTINUOUS
10
614.3900000
20
857.8800000
11
614.3900000
21
850.8800000
0
LINE
8
Top_Silk
6
CONTINUOUS
10
601.3900000
20
851.3800000
11
602.8900000
21
851.3800000
0
LINE
8
Top_Silk
6
CONTINUOUS
10
602.8900000
20
851.3800000
11
602.8900000
21
850.8800000
0
LINE
8
Top_Silk
6
CONTINUOUS
10
610.8900000
20
851.3800000
11
609.3900000
21
851.3800000
0
LINE
8
Top_Silk
6
CONTINUOUS
10
611.3900000
20
851.3800000
11
601.3900000
21
851.3800000
0
LINE
8
Top_Silk
6
CONTINUOUS
10
599.3900000
20
856.8800000
11
613.3900000
21
856.8800000
0
LINE
8
Top_Silk
6
CONTINUOUS
10
599.8900000
20
856.3800000
11
612.8900000
21
856.3800000
0
LINE
8
Top_Silk
6
CONTINUOUS
10
612.8900000
20
855.8800000
11
599.8900000
21
855.8800000
0
LINE
8
Top_Silk
6
CONTINUOUS
10
613.3900000
20
854.8800000
11
599.3900000
21
854.8800000
0
LINE
8
Top_Silk
6
CONTINUOUS
10
614.3900000
20
850.8800000
11
598.3900000
21
850.8800000
0
LINE
8
Top_Silk
6
CONTINUOUS
10
598.3900000
20
857.8800000
11
614.3900000
21
857.8800000
0
ENDBLK
0
BLOCK
2
CON_SER_3966_5_2020
8
0
70
0
10
0.0000000
20
0.0000000
0
LINE
8
Top_Silk
6
CONTINUOUS
10
581.7870000
20
844.2960000
11
581.5330000
21
844.2960000
0
LINE
8
Top_Silk
6
CONTINUOUS
10
582.5490000
20
844.2960000
11
582.2950000
21
844.2960000
0
LINE
8
Top_Silk
6
CONTINUOUS
10
583.3110000
20
844.2960000
11
583.0570000
21
844.2960000
0
LINE
8
Top_Silk
6
CONTINUOUS
10
578.6120000
20
844.2960000
11
578.6120000
21
843.9150000
0
LINE
8
Top_Silk
6
CONTINUOUS
10
578.6120000
20
843.4070000
11
578.6120000
21
843.0260000
0
LINE
8
Top_Silk
6
CONTINUOUS
10
578.6120000
20
842.5180000
11
578.6120000
21
842.1370000
0
LINE
8
Top_Silk
6
CONTINUOUS
10
578.6120000
20
841.6290000
11
578.6120000
21
841.2480000
0
LINE
8
Top_Silk
6
CONTINUOUS
10
578.6120000
20
840.7400000
11
578.6120000
21
840.3590000
0
LINE
8
Top_Silk
6
CONTINUOUS
10
578.9930000
20
844.2960000
11
578.6120000
21
844.2960000
0
LINE
8
Top_Silk
6
CONTINUOUS
10
580.2630000
20
844.2960000
11
580.0090000
21
844.2960000
0
LINE
8
Top_Silk
6
CONTINUOUS
10
581.0250000
20
844.2960000
11
580.7710000
21
844.2960000
0
LINE
8
Top_Silk
6
CONTINUOUS
10
578.8660000
20
844.2960000
11
578.6120000
21
844.2960000
0
LINE
8
Top_Silk
6
CONTINUOUS
10
579.6280000
20
844.2960000
11
579.3740000
21
844.2960000
0
LINE
8
Top_Silk
6
CONTINUOUS
10
578.6120000
20
838.9620000
11
578.6120000
21
838.5810000
0
LINE
8
Top_Silk
6
CONTINUOUS
10
578.6120000
20
838.0730000
11
578.6120000
21
837.6920000
0
LINE
8
Top_Silk
6
CONTINUOUS
10
578.6120000
20
837.1840000
11
578.6120000
21
836.8030000
0
LINE
8
Top_Silk
6
CONTINUOUS
10
578.6120000
20
836.2950000
11
578.6120000
21
835.9140000
0
LINE
8
Top_Silk
6
CONTINUOUS
10
578.6120000
20
835.4060000
11
578.6120000
21
835.0250000
0
LINE
8
Top_Silk
6
CONTINUOUS
10
578.6120000
20
834.5170000
11
578.6120000
21
834.1360000
0
LINE
8
Top_Silk
6
CONTINUOUS
10
578.6120000
20
833.6280000
11
578.6120000
21
833.2470000
0
LINE
8
Top_Silk
6
CONTINUOUS
10
578.6120000
20
832.7390000
11
578.6120000
21
832.3580000
0
LINE
8
Top_Silk
6
CONTINUOUS
10
582.1760000
20
836.1050000
11
583.1920000
21
836.1050000
0
LINE
8
Top_Silk
6
CONTINUOUS
10
583.1920000
20
832.1680000
11
582.1760000
21
832.1680000
0
LINE
8
Top_Silk
6
CONTINUOUS
10
582.1760000
20
836.1050000
11
582.1760000
21
832.1680000
0
LINE
8
Top_Silk
6
CONTINUOUS
10
578.6120000
20
829.1830000
11
578.6120000
21
828.8020000
0
LINE
8
Top_Silk
6
CONTINUOUS
10
578.6120000
20
831.7230000
11
578.6120000
21
831.3420000
0
LINE
8
Top_Silk
6
CONTINUOUS
10
578.6120000
20
830.8340000
11
578.6120000
21
830.4530000
0
LINE
8
Top_Silk
6
CONTINUOUS
10
578.6120000
20
829.9450000
11
578.6120000
21
829.5640000
0
LINE
8
Top_Silk
6
CONTINUOUS
10
578.6120000
20
826.6830000
11
578.6120000
21
826.3020000
0
LINE
8
Top_Silk
6
CONTINUOUS
10
578.6120000
20
828.3340000
11
578.6120000
21
827.9530000
0
LINE
8
Top_Silk
6
CONTINUOUS
10
578.6120000
20
827.4450000
11
578.6120000
21
827.0640000
0
LINE
8
Top_Silk
6
CONTINUOUS
10
578.6120000
20
825.8340000
11
578.6120000
21
825.4530000
0
LINE
8
Top_Silk
6
CONTINUOUS
10
578.6120000
20
824.9450000
11
578.6120000
21
824.5640000
0
LINE
8
Top_Silk
6
CONTINUOUS
10
578.6120000
20
824.7380000
11
578.6120000
21
825.1190000
0
LINE
8
Top_Silk
6
CONTINUOUS
10
578.6120000
20
825.6270000
11
578.6120000
21
826.0080000
0
LINE
8
Top_Silk
6
CONTINUOUS
10
581.7870000
20
823.8490000
11
581.5330000
21
823.8490000
0
LINE
8
Top_Silk
6
CONTINUOUS
10
582.5490000
20
823.8490000
11
582.2950000
21
823.8490000
0
LINE
8
Top_Silk
6
CONTINUOUS
10
583.3110000
20
823.8490000
11
583.0570000
21
823.8490000
0
LINE
8
Top_Silk
6
CONTINUOUS
10
578.9930000
20
823.8490000
11
578.6120000
21
823.8490000
0
LINE
8
Top_Silk
6
CONTINUOUS
10
580.2630000
20
823.8490000
11
580.0090000
21
823.8490000
0
LINE
8
Top_Silk
6
CONTINUOUS
10
581.0250000
20
823.8490000
11
580.7710000
21
823.8490000
0
LINE
8
Top_Silk
6
CONTINUOUS
10
578.8660000
20
823.8490000
11
578.6120000
21
823.8490000
0
LINE
8
Top_Silk
6
CONTINUOUS
10
579.6280000
20
823.8490000
11
579.3740000
21
823.8490000
0
LINE
8
Top_Silk
6
CONTINUOUS
10
583.3110000
20
844.2960000
11
590.6770000
21
844.2960000
0
LINE
8
Top_Silk
6
CONTINUOUS
10
583.3110000
20
823.8490000
11
590.6770000
21
823.8490000
0
LINE
8
Top_Silk
6
CONTINUOUS
10
578.6120000
20
839.8510000
11
578.6120000
21
839.4700000
0
LINE
8
Top_Silk
6
CONTINUOUS
10
578.6120000
20
824.1830000
11
578.6120000
21
823.8020000
0
LINE
8
Top_Silk
6
CONTINUOUS
10
578.6120000
20
823.8490000
11
578.6120000
21
824.2300000
0
LINE
8
Top_Silk
6
CONTINUOUS
10
583.1840000
20
823.8490000
11
583.1840000
21
844.2960000
0
LINE
8
Top_Silk
6
CONTINUOUS
10
590.6770000
20
844.2960000
11
590.6770000
21
823.8490000
0
ENDBLK
0
BLOCK
2
R126
8
0
70
0
10
0.0000000
20
0.0000000
0
INSERT
8
0
2
MLT0125__1071
10
0.0000000
20
0.0000000
41
1.0000000
42
1.0000000
43
1.0000000
50
0.0000000
0
INSERT
8
0
2
N524
10
576.3260000
20
836.4220000
41
1.0000000
42
1.0000000
43
1.0000000
50
270.0000000
0
INSERT
8
0
2
N522
10
576.3260000
20
826.2620100
41
1.0000000
42
1.0000000
43
1.0000000
50
270.0000000
0
TEXT
8
Top_Silk
10
575.8180100
20
832.6648900
40
0.9144000
1
R126
50
270.0
7
STANDARD
71
0
72
0
0
ENDBLK
0
BLOCK
2
X7
8
0
70
0
10
0.0000000
20
0.0000000
0
INSERT
8
0
2
D3M_1097
10
0.0000000
20
0.0000000
41
1.0000000
42
1.0000000
43
1.0000000
50
0.0000000
0
INSERT
8
0
2
N22
10
406.5400000
20
790.4200000
41
1.0000000
42
1.0000000
43
1.0000000
50
0.0000000
0
ENDBLK
0
BLOCK
2
SW2
8
0
70
0
10
0.0000000
20
0.0000000
0
INSERT
8
0
2
SW_CI11_SK_1108
10
0.0000000
20
0.0000000
41
1.0000000
42
1.0000000
43
1.0000000
50
0.0000000
0
INSERT
8
0
2
N75
10
446.0400000
20
838.9200000
41
1.0000000
42
1.0000000
43
1.0000000
50
0.0000000
0
INSERT
8
0
2
N711
10
446.0400000
20
853.4200000
41
1.0000000
42
1.0000000
43
1.0000000
50
0.0000000
0
INSERT
8
0
2
N74
10
451.0400000
20
838.9200000
41
1.0000000
42
1.0000000
43
1.0000000
50
0.0000000
0
INSERT
8
0
2
N714
10
451.0400000
20
853.4200000
41
1.0000000
42
1.0000000
43
1.0000000
50
0.0000000
0
INSERT
8
0
2
N71
10
448.5400000
20
838.9200000
41
1.0000000
42
1.0000000
43
1.0000000
50
0.0000000
0
INSERT
8
0
2
N81
10
443.0400000
20
846.4200000
41
1.0000000
42
1.0000000
43
1.0000000
50
0.0000000
0
INSERT
8
0
2
N81
10
454.0400000
20
846.4200000
41
1.0000000
42
1.0000000
43
1.0000000
50
0.0000000
0
TEXT
8
Top_Silk
10
449.7099900
20
844.1387500
40
2.0320000
1
SW2
50
90.0
7
STANDARD
71
0
72
0
0
ENDBLK
0
BLOCK
2
J13
8
0
70
0
10
0.0000000
20
0.0000000
0
INSERT
8
0
2
KLIK_1134
10
0.0000000
20
0.0000000
41
1.0000000
42
1.0000000
43
1.0000000
50
0.0000000
0
INSERT
8
0
2
N7R16
10
474.1500000
20
815.0400000
41
1.0000000
42
1.0000000
43
1.0000000
50
0.0000000
0
INSERT
8
0
2
N7R
10
486.8500000
20
815.0400000
41
1.0000000
42
1.0000000
43
1.0000000
50
0.0000000
0
INSERT
8
0
2
N7R6
10
474.1500000
20
809.9600000
41
1.0000000
42
1.0000000
43
1.0000000
50
0.0000000
0
INSERT
8
0
2
N7R
10
486.8500000
20
809.9600000
41
1.0000000
42
1.0000000
43
1.0000000
50
0.0000000
0
TEXT
8
Top_Silk
10
476.2500000
20
807.7200000
40
2.0320000
1
J13
50
0.0
7
STANDARD
71
0
72
0
0
ENDBLK
0
BLOCK
2
X8
8
0
70
0
10
0.0000000
20
0.0000000
0
INSERT
8
0
2
D3M_1158
10
0.0000000
20
0.0000000
41
1.0000000
42
1.0000000
43
1.0000000
50
0.0000000
0
INSERT
8
0
2
N22
10
466.5000000
20
809.0000000
41
1.0000000
42
1.0000000
43
1.0000000
50
0.0000000
0
ENDBLK
0
BLOCK
2
J10
8
0
70
0
10
0.0000000
20
0.0000000
0
INSERT
8
0
2
KLIK_1169
10
0.0000000
20
0.0000000
41
1.0000000
42
1.0000000
43
1.0000000
50
0.0000000
0
INSERT
8
0
2
N7R12
10
475.6500000
20
849.0400000
41
1.0000000
42
1.0000000
43
1.0000000
50
0.0000000
0
INSERT
8
0
2
N7R
10
488.3500000
20
849.0400000
41
1.0000000
42
1.0000000
43
1.0000000
50
0.0000000
0
INSERT
8
0
2
N7R6
10
475.6500000
20
843.9600000
41
1.0000000
42
1.0000000
43
1.0000000
50
0.0000000
0
INSERT
8
0
2
N7R
10
488.3500000
20
843.9600000
41
1.0000000
42
1.0000000
43
1.0000000
50
0.0000000
0
TEXT
8
Top_Silk
10
477.5200000
20
842.0100000
40
2.0320000
1
J10
50
0.0
7
STANDARD
71
0
72
0
0
ENDBLK
0
BLOCK
2
X12
8
0
70
0
10
0.0000000
20
0.0000000
0
INSERT
8
0
2
D3M_1193
10
0.0000000
20
0.0000000
41
1.0000000
42
1.0000000
43
1.0000000
50
0.0000000
0
INSERT
8
0
2
N22
10
466.5000000
20
846.5000000
41
1.0000000
42
1.0000000
43
1.0000000
50
0.0000000
0
ENDBLK
0
BLOCK
2
J12
8
0
70
0
10
0.0000000
20
0.0000000
0
INSERT
8
0
2
KLIK_1204
10
0.0000000
20
0.0000000
41
1.0000000
42
1.0000000
43
1.0000000
50
0.0000000
0
INSERT
8
0
2
N7R12
10
502.6500000
20
849.0400000
41
1.0000000
42
1.0000000
43
1.0000000
50
0.0000000
0
INSERT
8
0
2
N7R
10
515.3500000
20
849.0400000
41
1.0000000
42
1.0000000
43
1.0000000
50
0.0000000
0
INSERT
8
0
2
N7R7
10
502.6500000
20
843.9600000
41
1.0000000
42
1.0000000
43
1.0000000
50
0.0000000
0
INSERT
8
0
2
N7R
10
515.3500000
20
843.9600000
41
1.0000000
42
1.0000000
43
1.0000000
50
0.0000000
0
TEXT
8
Top_Silk
10
503.9200000
20
836.9750000
40
2.0320000
1
J12
50
0.0
7
STANDARD
71
0
72
0
0
ENDBLK
0
BLOCK
2
J5
8
0
70
0
10
0.0000000
20
0.0000000
0
INSERT
8
0
2
KLIK_1228
10
0.0000000
20
0.0000000
41
1.0000000
42
1.0000000
43
1.0000000
50
0.0000000
0
INSERT
8
0
2
N7R13
10
525.1500000
20
815.0400000
41
1.0000000
42
1.0000000
43
1.0000000
50
0.0000000
0
INSERT
8
0
2
N7R
10
537.8500000
20
815.0400000
41
1.0000000
42
1.0000000
43
1.0000000
50
0.0000000
0
INSERT
8
0
2
N7R10
10
525.1500000
20
809.9600000
41
1.0000000
42
1.0000000
43
1.0000000
50
0.0000000
0
INSERT
8
0
2
N7R
10
537.8500000
20
809.9600000
41
1.0000000
42
1.0000000
43
1.0000000
50
0.0000000
0
TEXT
8
Top_Silk
10
527.0500000
20
807.7200000
40
2.0320000
1
J5
50
0.0
7
STANDARD
71
0
72
0
0
ENDBLK
0
BLOCK
2
J7
8
0
70
0
10
0.0000000
20
0.0000000
0
INSERT
8
0
2
KLIK_1252
10
0.0000000
20
0.0000000
41
1.0000000
42
1.0000000
43
1.0000000
50
0.0000000
0
INSERT
8
0
2
N7R12
10
529.6500000
20
849.0400000
41
1.0000000
42
1.0000000
43
1.0000000
50
0.0000000
0
INSERT
8
0
2
N7R
10
542.3500000
20
849.0400000
41
1.0000000
42
1.0000000
43
1.0000000
50
0.0000000
0
INSERT
8
0
2
N7R9
10
529.6500000
20
843.9600000
41
1.0000000
42
1.0000000
43
1.0000000
50
0.0000000
0
INSERT
8
0
2
N7R
10
542.3500000
20
843.9600000
41
1.0000000
42
1.0000000
43
1.0000000
50
0.0000000
0
TEXT
8
Top_Silk
10
530.9200000
20
836.9750000
40
2.0320000
1
J7
50
0.0
7
STANDARD
71
0
72
0
0
ENDBLK
0
BLOCK
2
J21
8
0
70
0
10
0.0000000
20
0.0000000
0
INSERT
8
0
2
KLIK_1276
10
0.0000000
20
0.0000000
41
1.0000000
42
1.0000000
43
1.0000000
50
0.0000000
0
INSERT
8
0
2
N7R14
10
559.1500000
20
815.0400000
41
1.0000000
42
1.0000000
43
1.0000000
50
0.0000000
0
INSERT
8
0
2
N7R
10
571.8500000
20
815.0400000
41
1.0000000
42
1.0000000
43
1.0000000
50
0.0000000
0
INSERT
8
0
2
N7R9
10
559.1500000
20
809.9600000
41
1.0000000
42
1.0000000
43
1.0000000
50
0.0000000
0
INSERT
8
0
2
N7R
10
571.8500000
20
809.9600000
41
1.0000000
42
1.0000000
43
1.0000000
50
0.0000000
0
TEXT
8
Top_Silk
10
561.3400000
20
807.7200000
40
2.0320000
1
J21
50
0.0
7
STANDARD
71
0
72
0
0
ENDBLK
0
BLOCK
2
J1
8
0
70
0
10
0.0000000
20
0.0000000
0
INSERT
8
0
2
KLIK_1300
10
0.0000000
20
0.0000000
41
1.0000000
42
1.0000000
43
1.0000000
50
0.0000000
0
INSERT
8
0
2
N7R12
10
556.6500000
20
849.0400000
41
1.0000000
42
1.0000000
43
1.0000000
50
0.0000000
0
INSERT
8
0
2
N7R
10
569.3500000
20
849.0400000
41
1.0000000
42
1.0000000
43
1.0000000
50
0.0000000
0
INSERT
8
0
2
N7R11
10
556.6500000
20
843.9600000
41
1.0000000
42
1.0000000
43
1.0000000
50
0.0000000
0
INSERT
8
0
2
N7R
10
569.3500000
20
843.9600000
41
1.0000000
42
1.0000000
43
1.0000000
50
0.0000000
0
TEXT
8
Top_Silk
10
557.9200000
20
836.9750000
40
2.0320000
1
J1
50
0.0
7
STANDARD
71
0
72
0
0
ENDBLK
0
BLOCK
2
X13
8
0
70
0
10
0.0000000
20
0.0000000
0
INSERT
8
0
2
D3M_1324
10
0.0000000
20
0.0000000
41
1.0000000
42
1.0000000
43
1.0000000
50
0.0000000
0
INSERT
8
0
2
N22
10
577.5000000
20
846.5000000
41
1.0000000
42
1.0000000
43
1.0000000
50
0.0000000
0
ENDBLK
0
BLOCK
2
X3
8
0
70
0
10
0.0000000
20
0.0000000
0
INSERT
8
0
2
D3M_1335
10
0.0000000
20
0.0000000
41
1.0000000
42
1.0000000
43
1.0000000
50
0.0000000
0
INSERT
8
0
2
N22
10
595.5000000
20
800.5000000
41
1.0000000
42
1.0000000
43
1.0000000
50
0.0000000
0
ENDBLK
0
BLOCK
2
X11
8
0
70
0
10
0.0000000
20
0.0000000
0
INSERT
8
0
2
D3M_1346
10
0.0000000
20
0.0000000
41
1.0000000
42
1.0000000
43
1.0000000
50
0.0000000
0
INSERT
8
0
2
N22
10
595.5000000
20
840.5000000
41
1.0000000
42
1.0000000
43
1.0000000
50
0.0000000
0
ENDBLK
0
BLOCK
2
J24
8
0
70
0
10
0.0000000
20
0.0000000
0
INSERT
8
0
2
BREKER_1357
10
0.0000000
20
0.0000000
41
1.0000000
42
1.0000000
43
1.0000000
50
0.0000000
0
INSERT
8
0
2
N615_F
10
601.9800000
20
848.3600000
41
1.0000000
42
1.0000000
43
1.0000000
50
-90.0000000
0
INSERT
8
0
2
N618_F
10
604.5200000
20
848.3600000
41
1.0000000
42
1.0000000
43
1.0000000
50
-90.0000000
0
ENDBLK
0
BLOCK
2
J25
8
0
70
0
10
0.0000000
20
0.0000000
0
INSERT
8
0
2
BREKER_1377
10
0.0000000
20
0.0000000
41
1.0000000
42
1.0000000
43
1.0000000
50
0.0000000
0
INSERT
8
0
2
N620_F
10
607.0600000
20
848.3600000
41
1.0000000
42
1.0000000
43
1.0000000
50
-90.0000000
0
INSERT
8
0
2
N621_F
10
609.6000000
20
848.3600000
41
1.0000000
42
1.0000000
43
1.0000000
50
-90.0000000
0
ENDBLK
0
BLOCK
2
X4
8
0
70
0
10
0.0000000
20
0.0000000
0
INSERT
8
0
2
BH20_1397
10
0.0000000
20
0.0000000
41
1.0000000
42
1.0000000
43
1.0000000
50
0.0000000
0
INSERT
8
0
2
N617_F
10
448.8180000
20
792.7340000
41
1.0000000
42
1.0000000
43
1.0000000
50
-90.0000000
0
INSERT
8
0
2
N61_F
10
448.8180000
20
790.1940000
41
1.0000000
42
1.0000000
43
1.0000000
50
-90.0000000
0
INSERT
8
0
2
N64_F
10
448.8180000
20
800.3540000
41
1.0000000
42
1.0000000
43
1.0000000
50
-90.0000000
0
INSERT
8
0
2
N68_F
10
448.8180000
20
797.8140000
41
1.0000000
42
1.0000000
43
1.0000000
50
-90.0000000
0
INSERT
8
0
2
N67_F
10
448.8180000
20
805.4340000
41
1.0000000
42
1.0000000
43
1.0000000
50
-90.0000000
0
INSERT
8
0
2
N614_F
10
448.8180000
20
807.9740000
41
1.0000000
42
1.0000000
43
1.0000000
50
-90.0000000
0
INSERT
8
0
2
N6R16_F
10
448.8180000
20
813.0540000
41
1.0000000
42
1.0000000
43
1.0000000
50
-90.0000000
0
INSERT
8
0
2
N619_F
10
446.2780000
20
792.7340000
41
1.0000000
42
1.0000000
43
1.0000000
50
-90.0000000
0
INSERT
8
0
2
N623_F
10
446.2780000
20
790.1940000
41
1.0000000
42
1.0000000
43
1.0000000
50
-90.0000000
0
INSERT
8
0
2
N65_F
10
446.2780000
20
800.3540000
41
1.0000000
42
1.0000000
43
1.0000000
50
-90.0000000
0
INSERT
8
0
2
N63_F
10
446.2780000
20
797.8140000
41
1.0000000
42
1.0000000
43
1.0000000
50
-90.0000000
0
INSERT
8
0
2
N611_F
10
446.2780000
20
807.9740000
41
1.0000000
42
1.0000000
43
1.0000000
50
-90.0000000
0
INSERT
8
0
2
N66_F
10
446.2780000
20
805.4340000
41
1.0000000
42
1.0000000
43
1.0000000
50
-90.0000000
0
INSERT
8
0
2
N612_F
10
446.2780000
20
813.0540000
41
1.0000000
42
1.0000000
43
1.0000000
50
-90.0000000
0
INSERT
8
0
2
N610_F
10
448.8180000
20
802.8940000
41
1.0000000
42
1.0000000
43
1.0000000
50
-90.0000000
0
INSERT
8
0
2
N622_F
10
448.8180000
20
795.2740000
41
1.0000000
42
1.0000000
43
1.0000000
50
-90.0000000
0
INSERT
8
0
2
N613_F
10
448.8180000
20
810.5140000
41
1.0000000
42
1.0000000
43
1.0000000
50
-90.0000000
0
INSERT
8
0
2
N69_F
10
446.2780000
20
802.8940000
41
1.0000000
42
1.0000000
43
1.0000000
50
-90.0000000
0
INSERT
8
0
2
N6_F
10
446.2780000
20
795.2740000
41
1.0000000
42
1.0000000
43
1.0000000
50
-90.0000000
0
INSERT
8
0
2
N62_F
10
446.2780000
20
810.5140000
41
1.0000000
42
1.0000000
43
1.0000000
50
-90.0000000
0
ENDBLK
0
BLOCK
2
J14
8
0
70
0
10
0.0000000
20
0.0000000
0
INSERT
8
0
2
KLIK_1438
10
0.0000000
20
0.0000000
41
1.0000000
42
1.0000000
43
1.0000000
50
0.0000000
0
INSERT
8
0
2
N7R2
10
474.1500000
20
798.0400000
41
1.0000000
42
1.0000000
43
1.0000000
50
0.0000000
0
INSERT
8
0
2
N7R
10
486.8500000
20
798.0400000
41
1.0000000
42
1.0000000
43
1.0000000
50
0.0000000
0
INSERT
8
0
2
N7R6
10
474.1500000
20
792.9600000
41
1.0000000
42
1.0000000
43
1.0000000
50
0.0000000
0
INSERT
8
0
2
N7R
10
486.8500000
20
792.9600000
41
1.0000000
42
1.0000000
43
1.0000000
50
0.0000000
0
TEXT
8
Top_Silk
10
476.2500000
20
789.9400000
40
2.0320000
1
J14
50
0.0
7
STANDARD
71
0
72
0
0
ENDBLK
0
BLOCK
2
J9
8
0
70
0
10
0.0000000
20
0.0000000
0
INSERT
8
0
2
KLIK_1462
10
0.0000000
20
0.0000000
41
1.0000000
42
1.0000000
43
1.0000000
50
0.0000000
0
INSERT
8
0
2
N7R13
10
474.1500000
20
832.0400000
41
1.0000000
42
1.0000000
43
1.0000000
50
0.0000000
0
INSERT
8
0
2
N7R
10
486.8500000
20
832.0400000
41
1.0000000
42
1.0000000
43
1.0000000
50
0.0000000
0
INSERT
8
0
2
N7R6
10
474.1500000
20
826.9600000
41
1.0000000
42
1.0000000
43
1.0000000
50
0.0000000
0
INSERT
8
0
2
N7R
10
486.8500000
20
826.9600000
41
1.0000000
42
1.0000000
43
1.0000000
50
0.0000000
0
TEXT
8
Top_Silk
10
476.2500000
20
824.2300000
40
2.0320000
1
J9
50
0.0
7
STANDARD
71
0
72
0
0
ENDBLK
0
BLOCK
2
J4
8
0
70
0
10
0.0000000
20
0.0000000
0
INSERT
8
0
2
KLIK_1486
10
0.0000000
20
0.0000000
41
1.0000000
42
1.0000000
43
1.0000000
50
0.0000000
0
INSERT
8
0
2
N7R12
10
525.1500000
20
832.0400000
41
1.0000000
42
1.0000000
43
1.0000000
50
0.0000000
0
INSERT
8
0
2
N7R
10
537.8500000
20
832.0400000
41
1.0000000
42
1.0000000
43
1.0000000
50
0.0000000
0
INSERT
8
0
2
N7R10
10
525.1500000
20
826.9600000
41
1.0000000
42
1.0000000
43
1.0000000
50
0.0000000
0
INSERT
8
0
2
N7R
10
537.8500000
20
826.9600000
41
1.0000000
42
1.0000000
43
1.0000000
50
0.0000000
0
TEXT
8
Top_Silk
10
527.0500000
20
824.2300000
40
2.0320000
1
J4
50
0.0
7
STANDARD
71
0
72
0
0
ENDBLK
0
BLOCK
2
J6
8
0
70
0
10
0.0000000
20
0.0000000
0
INSERT
8
0
2
KLIK_1510
10
0.0000000
20
0.0000000
41
1.0000000
42
1.0000000
43
1.0000000
50
0.0000000
0
INSERT
8
0
2
N7R16
10
525.1500000
20
798.0400000
41
1.0000000
42
1.0000000
43
1.0000000
50
0.0000000
0
INSERT
8
0
2
N7R
10
537.8500000
20
798.0400000
41
1.0000000
42
1.0000000
43
1.0000000
50
0.0000000
0
INSERT
8
0
2
N7R10
10
525.1500000
20
792.9600000
41
1.0000000
42
1.0000000
43
1.0000000
50
0.0000000
0
INSERT
8
0
2
N7R
10
537.8500000
20
792.9600000
41
1.0000000
42
1.0000000
43
1.0000000
50
0.0000000
0
TEXT
8
Top_Silk
10
527.0500000
20
789.9400000
40
2.0320000
1
J6
50
0.0
7
STANDARD
71
0
72
0
0
ENDBLK
0
BLOCK
2
J18
8
0
70
0
10
0.0000000
20
0.0000000
0
INSERT
8
0
2
KLIK_1534
10
0.0000000
20
0.0000000
41
1.0000000
42
1.0000000
43
1.0000000
50
0.0000000
0
INSERT
8
0
2
N7R14
10
559.1500000
20
798.0400000
41
1.0000000
42
1.0000000
43
1.0000000
50
0.0000000
0
INSERT
8
0
2
N7R
10
571.8500000
20
798.0400000
41
1.0000000
42
1.0000000
43
1.0000000
50
0.0000000
0
INSERT
8
0
2
N7R7
10
559.1500000
20
792.9600000
41
1.0000000
42
1.0000000
43
1.0000000
50
0.0000000
0
INSERT
8
0
2
N7R
10
571.8500000
20
792.9600000
41
1.0000000
42
1.0000000
43
1.0000000
50
0.0000000
0
TEXT
8
Top_Silk
10
561.3400000
20
789.9400000
40
2.0320000
1
J18
50
0.0
7
STANDARD
71
0
72
0
0
ENDBLK
0
BLOCK
2
J23
8
0
70
0
10
0.0000000
20
0.0000000
0
INSERT
8
0
2
KLIK_1558
10
0.0000000
20
0.0000000
41
1.0000000
42
1.0000000
43
1.0000000
50
0.0000000
0
INSERT
8
0
2
N7R14
10
559.1900000
20
831.9600000
41
1.0000000
42
1.0000000
43
1.0000000
50
0.0000000
0
INSERT
8
0
2
N7R
10
571.8900000
20
831.9600000
41
1.0000000
42
1.0000000
43
1.0000000
50
0.0000000
0
INSERT
8
0
2
N7R10
10
559.1900000
20
826.8800000
41
1.0000000
42
1.0000000
43
1.0000000
50
0.0000000
0
INSERT
8
0
2
N7R
10
571.8900000
20
826.8800000
41
1.0000000
42
1.0000000
43
1.0000000
50
0.0000000
0
TEXT
8
Top_Silk
10
561.3400000
20
824.2300000
40
2.0320000
1
J23
50
0.0
7
STANDARD
71
0
72
0
0
ENDBLK
0
BLOCK
2
R127
8
0
70
0
10
0.0000000
20
0.0000000
0
INSERT
8
0
2
MLT0125__1583
10
0.0000000
20
0.0000000
41
1.0000000
42
1.0000000
43
1.0000000
50
0.0000000
0
INSERT
8
0
2
N51
10
579.6280000
20
816.1020000
41
1.0000000
42
1.0000000
43
1.0000000
50
90.0000000
0
INSERT
8
0
2
N522
10
579.6280000
20
826.2619900
41
1.0000000
42
1.0000000
43
1.0000000
50
90.0000000
0
TEXT
8
Top_Silk
10
580.1359900
20
819.8591000
40
0.9144000
1
R127
50
90.0
7
STANDARD
71
0
72
0
0
ENDBLK
0
BLOCK
2
R125
8
0
70
0
10
0.0000000
20
0.0000000
0
INSERT
8
0
2
MLT0125__1605
10
0.0000000
20
0.0000000
41
1.0000000
42
1.0000000
43
1.0000000
50
0.0000000
0
INSERT
8
0
2
N523
10
602.4880000
20
795.2740000
41
1.0000000
42
1.0000000
43
1.0000000
50
45.0000000
0
INSERT
8
0
2
N524
10
609.6722000
20
802.4582000
41
1.0000000
42
1.0000000
43
1.0000000
50
45.0000000
0
TEXT
8
Top_Silk
10
605.5038700
20
797.5714800
40
0.9144000
1
R125
50
45.0
7
STANDARD
71
0
72
0
0
ENDBLK
0
BLOCK
2
J15
8
0
70
0
10
0.0000000
20
0.0000000
0
INSERT
8
0
2
KLIK_1626
10
0.0000000
20
0.0000000
41
1.0000000
42
1.0000000
43
1.0000000
50
0.0000000
0
INSERT
8
0
2
N7R14
10
421.1500000
20
815.0400000
41
1.0000000
42
1.0000000
43
1.0000000
50
0.0000000
0
INSERT
8
0
2
N7R
10
433.8500000
20
815.0400000
41
1.0000000
42
1.0000000
43
1.0000000
50
0.0000000
0
INSERT
8
0
2
N7R6
10
421.1500000
20
809.9600000
41
1.0000000
42
1.0000000
43
1.0000000
50
0.0000000
0
INSERT
8
0
2
N7R
10
433.8500000
20
809.9600000
41
1.0000000
42
1.0000000
43
1.0000000
50
0.0000000
0
TEXT
8
Top_Silk
10
422.4200000
20
802.9750000
40
2.0320000
1
J15
50
0.0
7
STANDARD
71
0
72
0
0
ENDBLK
0
BLOCK
2
J16
8
0
70
0
10
0.0000000
20
0.0000000
0
INSERT
8
0
2
KLIK_1650
10
0.0000000
20
0.0000000
41
1.0000000
42
1.0000000
43
1.0000000
50
0.0000000
0
INSERT
8
0
2
N7R16
10
491.1500000
20
815.0400000
41
1.0000000
42
1.0000000
43
1.0000000
50
0.0000000
0
INSERT
8
0
2
N7R
10
503.8500000
20
815.0400000
41
1.0000000
42
1.0000000
43
1.0000000
50
0.0000000
0
INSERT
8
0
2
N7R7
10
491.1500000
20
809.9600000
41
1.0000000
42
1.0000000
43
1.0000000
50
0.0000000
0
INSERT
8
0
2
N7R
10
503.8500000
20
809.9600000
41
1.0000000
42
1.0000000
43
1.0000000
50
0.0000000
0
TEXT
8
Top_Silk
10
492.7600000
20
807.7200000
40
2.0320000
1
J16
50
0.0
7
STANDARD
71
0
72
0
0
ENDBLK
0
BLOCK
2
SW1
8
0
70
0
10
0.0000000
20
0.0000000
0
INSERT
8
0
2
SW_CI11_SK_1674
10
0.0000000
20
0.0000000
41
1.0000000
42
1.0000000
43
1.0000000
50
0.0000000
0
INSERT
8
0
2
N73
10
404.0400000
20
838.9200000
41
1.0000000
42
1.0000000
43
1.0000000
50
0.0000000
0
INSERT
8
0
2
N711
10
404.0400000
20
853.4200000
41
1.0000000
42
1.0000000
43
1.0000000
50
0.0000000
0
INSERT
8
0
2
N78
10
409.0400000
20
838.9200000
41
1.0000000
42
1.0000000
43
1.0000000
50
0.0000000
0
INSERT
8
0
2
N714
10
409.0400000
20
853.4200000
41
1.0000000
42
1.0000000
43
1.0000000
50
0.0000000
0
INSERT
8
0
2
N71
10
406.5400000
20
838.9200000
41
1.0000000
42
1.0000000
43
1.0000000
50
0.0000000
0
INSERT
8
0
2
N81
10
401.0400000
20
846.4200000
41
1.0000000
42
1.0000000
43
1.0000000
50
0.0000000
0
INSERT
8
0
2
N81
10
412.0400000
20
846.4200000
41
1.0000000
42
1.0000000
43
1.0000000
50
0.0000000
0
TEXT
8
Top_Silk
10
407.7099900
20
844.1387500
40
2.0320000
1
SW1
50
90.0
7
STANDARD
71
0
72
0
0
ENDBLK
0
BLOCK
2
X6
8
0
70
0
10
0.0000000
20
0.0000000
0
INSERT
8
0
2
D3M_1700
10
0.0000000
20
0.0000000
41
1.0000000
42
1.0000000
43
1.0000000
50
0.0000000
0
INSERT
8
0
2
N22
10
427.5400000
20
846.4200000
41
1.0000000
42
1.0000000
43
1.0000000
50
0.0000000
0
ENDBLK
0
BLOCK
2
X9
8
0
70
0
10
0.0000000
20
0.0000000
0
INSERT
8
0
2
D3M_1711
10
0.0000000
20
0.0000000
41
1.0000000
42
1.0000000
43
1.0000000
50
0.0000000
0
INSERT
8
0
2
N22
10
522.5400000
20
784.4200000
41
1.0000000
42
1.0000000
43
1.0000000
50
0.0000000
0
ENDBLK
0
BLOCK
2
J19
8
0
70
0
10
0.0000000
20
0.0000000
0
INSERT
8
0
2
KLIK_1722
10
0.0000000
20
0.0000000
41
1.0000000
42
1.0000000
43
1.0000000
50
0.0000000
0
INSERT
8
0
2
N7R16
10
508.1500000
20
815.0400000
41
1.0000000
42
1.0000000
43
1.0000000
50
0.0000000
0
INSERT
8
0
2
N7R
10
520.8500000
20
815.0400000
41
1.0000000
42
1.0000000
43
1.0000000
50
0.0000000
0
INSERT
8
0
2
N7R9
10
508.1500000
20
809.9600000
41
1.0000000
42
1.0000000
43
1.0000000
50
0.0000000
0
INSERT
8
0
2
N7R
10
520.8500000
20
809.9600000
41
1.0000000
42
1.0000000
43
1.0000000
50
0.0000000
0
TEXT
8
Top_Silk
10
509.2700000
20
807.7200000
40
2.0320000
1
J19
50
0.0
7
STANDARD
71
0
72
0
0
ENDBLK
0
BLOCK
2
J3
8
0
70
0
10
0.0000000
20
0.0000000
0
INSERT
8
0
2
KLIK_1746
10
0.0000000
20
0.0000000
41
1.0000000
42
1.0000000
43
1.0000000
50
0.0000000
0
INSERT
8
0
2
N7R16
10
542.1500000
20
815.0400000
41
1.0000000
42
1.0000000
43
1.0000000
50
0.0000000
0
INSERT
8
0
2
N7R
10
554.8500000
20
815.0400000
41
1.0000000
42
1.0000000
43
1.0000000
50
0.0000000
0
INSERT
8
0
2
N7R11
10
542.1500000
20
809.9600000
41
1.0000000
42
1.0000000
43
1.0000000
50
0.0000000
0
INSERT
8
0
2
N7R
10
554.8500000
20
809.9600000
41
1.0000000
42
1.0000000
43
1.0000000
50
0.0000000
0
TEXT
8
Top_Silk
10
543.5600000
20
807.7200000
40
2.0320000
1
J3
50
0.0
7
STANDARD
71
0
72
0
0
ENDBLK
0
BLOCK
2
X2
8
0
70
0
10
0.0000000
20
0.0000000
0
INSERT
8
0
2
D3M_1770
10
0.0000000
20
0.0000000
41
1.0000000
42
1.0000000
43
1.0000000
50
0.0000000
0
INSERT
8
0
2
N22
10
585.5400000
20
820.4200000
41
1.0000000
42
1.0000000
43
1.0000000
50
0.0000000
0
ENDBLK
0
BLOCK
2
X5
8
0
70
0
10
0.0000000
20
0.0000000
0
INSERT
8
0
2
D3M_1781
10
0.0000000
20
0.0000000
41
1.0000000
42
1.0000000
43
1.0000000
50
0.0000000
0
INSERT
8
0
2
N22
10
615.5000000
20
800.5000000
41
1.0000000
42
1.0000000
43
1.0000000
50
0.0000000
0
ENDBLK
0
BLOCK
2
X1
8
0
70
0
10
0.0000000
20
0.0000000
0
INSERT
8
0
2
D3M_1792
10
0.0000000
20
0.0000000
41
1.0000000
42
1.0000000
43
1.0000000
50
0.0000000
0
INSERT
8
0
2
N22
10
615.5000000
20
840.5000000
41
1.0000000
42
1.0000000
43
1.0000000
50
0.0000000
0
ENDBLK
0
BLOCK
2
X10
8
0
70
0
10
0.0000000
20
0.0000000
0
INSERT
8
0
2
D3M_1803
10
0.0000000
20
0.0000000
41
1.0000000
42
1.0000000
43
1.0000000
50
0.0000000
0
INSERT
8
0
2
N22
10
522.5400000
20
840.4200000
41
1.0000000
42
1.0000000
43
1.0000000
50
0.0000000
0
ENDBLK
0
BLOCK
2
J17
8
0
70
0
10
0.0000000
20
0.0000000
0
INSERT
8
0
2
KLIK_1814
10
0.0000000
20
0.0000000
41
1.0000000
42
1.0000000
43
1.0000000
50
0.0000000
0
INSERT
8
0
2
N7R2
10
491.1500000
20
798.0400000
41
1.0000000
42
1.0000000
43
1.0000000
50
0.0000000
0
INSERT
8
0
2
N7R
10
503.8500000
20
798.0400000
41
1.0000000
42
1.0000000
43
1.0000000
50
0.0000000
0
INSERT
8
0
2
N7R7
10
491.1500000
20
792.9600000
41
1.0000000
42
1.0000000
43
1.0000000
50
0.0000000
0
INSERT
8
0
2
N7R
10
503.8500000
20
792.9600000
41
1.0000000
42
1.0000000
43
1.0000000
50
0.0000000
0
TEXT
8
Top_Silk
10
492.7600000
20
789.9400000
40
2.0320000
1
J17
50
0.0
7
STANDARD
71
0
72
0
0
ENDBLK
0
BLOCK
2
J11
8
0
70
0
10
0.0000000
20
0.0000000
0
INSERT
8
0
2
KLIK_1838
10
0.0000000
20
0.0000000
41
1.0000000
42
1.0000000
43
1.0000000
50
0.0000000
0
INSERT
8
0
2
N7R13
10
491.1500000
20
832.0400000
41
1.0000000
42
1.0000000
43
1.0000000
50
0.0000000
0
INSERT
8
0
2
N7R
10
503.8500000
20
832.0400000
41
1.0000000
42
1.0000000
43
1.0000000
50
0.0000000
0
INSERT
8
0
2
N7R7
10
491.1500000
20
826.9600000
41
1.0000000
42
1.0000000
43
1.0000000
50
0.0000000
0
INSERT
8
0
2
N7R
10
503.8500000
20
826.9600000
41
1.0000000
42
1.0000000
43
1.0000000
50
0.0000000
0
TEXT
8
Top_Silk
10
492.7600000
20
824.2300000
40
2.0320000
1
J11
50
0.0
7
STANDARD
71
0
72
0
0
ENDBLK
0
BLOCK
2
J20
8
0
70
0
10
0.0000000
20
0.0000000
0
INSERT
8
0
2
KLIK_1862
10
0.0000000
20
0.0000000
41
1.0000000
42
1.0000000
43
1.0000000
50
0.0000000
0
INSERT
8
0
2
N7R2
10
508.1500000
20
798.0400000
41
1.0000000
42
1.0000000
43
1.0000000
50
0.0000000
0
INSERT
8
0
2
N7R
10
520.8500000
20
798.0400000
41
1.0000000
42
1.0000000
43
1.0000000
50
0.0000000
0
INSERT
8
0
2
N7R9
10
508.1500000
20
792.9600000
41
1.0000000
42
1.0000000
43
1.0000000
50
0.0000000
0
INSERT
8
0
2
N7R
10
520.8500000
20
792.9600000
41
1.0000000
42
1.0000000
43
1.0000000
50
0.0000000
0
TEXT
8
Top_Silk
10
510.5400000
20
789.9400000
40
2.0320000
1
J20
50
0.0
7
STANDARD
71
0
72
0
0
ENDBLK
0
BLOCK
2
J22
8
0
70
0
10
0.0000000
20
0.0000000
0
INSERT
8
0
2
KLIK_1886
10
0.0000000
20
0.0000000
41
1.0000000
42
1.0000000
43
1.0000000
50
0.0000000
0
INSERT
8
0
2
N7R2
10
542.1500000
20
798.0400000
41
1.0000000
42
1.0000000
43
1.0000000
50
0.0000000
0
INSERT
8
0
2
N7R
10
554.8500000
20
798.0400000
41
1.0000000
42
1.0000000
43
1.0000000
50
0.0000000
0
INSERT
8
0
2
N7R10
10
542.1500000
20
792.9600000
41
1.0000000
42
1.0000000
43
1.0000000
50
0.0000000
0
INSERT
8
0
2
N7R
10
554.8500000
20
792.9600000
41
1.0000000
42
1.0000000
43
1.0000000
50
0.0000000
0
TEXT
8
Top_Silk
10
543.5600000
20
789.9400000
40
2.0320000
1
J22
50
0.0
7
STANDARD
71
0
72
0
0
ENDBLK
0
BLOCK
2
J2
8
0
70
0
10
0.0000000
20
0.0000000
0
INSERT
8
0
2
KLIK_1910
10
0.0000000
20
0.0000000
41
1.0000000
42
1.0000000
43
1.0000000
50
0.0000000
0
INSERT
8
0
2
N7R13
10
542.1500000
20
832.0400000
41
1.0000000
42
1.0000000
43
1.0000000
50
0.0000000
0
INSERT
8
0
2
N7R
10
554.8500000
20
832.0400000
41
1.0000000
42
1.0000000
43
1.0000000
50
0.0000000
0
INSERT
8
0
2
N7R11
10
542.1500000
20
826.9600000
41
1.0000000
42
1.0000000
43
1.0000000
50
0.0000000
0
INSERT
8
0
2
N7R
10
554.8500000
20
826.9600000
41
1.0000000
42
1.0000000
43
1.0000000
50
0.0000000
0
TEXT
8
Top_Silk
10
543.5600000
20
824.2300000
40
2.0320000
1
J2
50
0.0
7
STANDARD
71
0
72
0
0
ENDBLK
0
BLOCK
2
J8
8
0
70
0
10
0.0000000
20
0.0000000
0
INSERT
8
0
2
KLIK_1934
10
0.0000000
20
0.0000000
41
1.0000000
42
1.0000000
43
1.0000000
50
0.0000000
0
INSERT
8
0
2
N7R13
10
508.1500000
20
832.0400000
41
1.0000000
42
1.0000000
43
1.0000000
50
0.0000000
0
INSERT
8
0
2
N7R
10
520.8500000
20
832.0400000
41
1.0000000
42
1.0000000
43
1.0000000
50
0.0000000
0
INSERT
8
0
2
N7R9
10
508.1500000
20
826.9600000
41
1.0000000
42
1.0000000
43
1.0000000
50
0.0000000
0
INSERT
8
0
2
N7R
10
520.8500000
20
826.9600000
41
1.0000000
42
1.0000000
43
1.0000000
50
0.0000000
0
TEXT
8
Top_Silk
10
509.2700000
20
824.2300000
40
2.0320000
1
J8
50
0.0
7
STANDARD
71
0
72
0
0
ENDBLK
0
BLOCK
2
U1
8
0
70
0
10
0.0000000
20
0.0000000
0
INSERT
8
0
2
R_SK_J1_1958
10
0.0000000
20
0.0000000
41
1.0000000
42
1.0000000
43
1.0000000
50
0.0000000
0
INSERT
8
0
2
N611
10
602.2500000
20
807.7500000
41
1.0000000
42
1.0000000
43
1.0000000
50
90.0000000
0
INSERT
8
0
2
N62
10
602.2500000
20
812.2500000
41
1.0000000
42
1.0000000
43
1.0000000
50
90.0000000
0
INSERT
8
0
2
N61
10
603.0000000
20
830.3000000
41
1.0000000
42
1.0000000
43
1.0000000
50
180.0000000
0
INSERT
8
0
2
N611
10
608.7500000
20
807.7500000
41
1.0000000
42
1.0000000
43
1.0000000
50
90.0000000
0
INSERT
8
0
2
N62
10
608.7500000
20
812.2500000
41
1.0000000
42
1.0000000
43
1.0000000
50
90.0000000
0
INSERT
8
0
2
N624
10
608.0000000
20
830.3000000
41
1.0000000
42
1.0000000
43
1.0000000
50
180.0000000
0
INSERT
8
0
2
N617
10
614.6500000
20
820.5000000
41
1.0000000
42
1.0000000
43
1.0000000
50
90.0000000
0
INSERT
8
0
2
N61
10
614.6500000
20
823.0000000
41
1.0000000
42
1.0000000
43
1.0000000
50
90.0000000
0
INSERT
8
0
2
N624
10
614.6500000
20
818.0000000
41
1.0000000
42
1.0000000
43
1.0000000
50
90.0000000
0
INSERT
8
0
2
N91
10
597.7500000
20
813.8100000
41
1.0000000
42
1.0000000
43
1.0000000
50
90.0000000
0
INSERT
8
0
2
N619
10
605.5000000
20
830.3000000
41
1.0000000
42
1.0000000
43
1.0000000
50
180.0000000
0
INSERT
8
0
2
N91
10
613.2500000
20
813.8100000
41
1.0000000
42
1.0000000
43
1.0000000
50
90.0000000
0
INSERT
8
0
2
N91
10
597.7500000
20
827.1100000
41
1.0000000
42
1.0000000
43
1.0000000
50
90.0000000
0
INSERT
8
0
2
N91
10
613.2500000
20
827.1100000
41
1.0000000
42
1.0000000
43
1.0000000
50
90.0000000
0
TEXT
8
Top_Silk
10
601.9799900
20
818.9647900
40
2.0320000
1
U1
50
90.0
7
STANDARD
71
0
72
0
0
ENDBLK
0
BLOCK
2
X14
8
0
70
0
10
0.0000000
20
0.0000000
0
INSERT
8
0
2
CON_USB_A1_1987
10
0.0000000
20
0.0000000
41
1.0000000
42
1.0000000
43
1.0000000
50
0.0000000
0
INSERT
8
0
2
d2_41
10
599.7700000
20
852.2500000
41
1.0000000
42
1.0000000
43
1.0000000
50
0.0000000
0
INSERT
8
0
2
d1_018
10
605.2700000
20
855.0000000
41
1.0000000
42
1.0000000
43
1.0000000
50
0.0000000
0
INSERT
8
0
2
d1_020
10
607.2700000
20
855.0000000
41
1.0000000
42
1.0000000
43
1.0000000
50
0.0000000
0
INSERT
8
0
2
d1_015
10
602.7700000
20
855.0000000
41
1.0000000
42
1.0000000
43
1.0000000
50
0.0000000
0
INSERT
8
0
2
d1_021
10
609.7700000
20
855.0000000
41
1.0000000
42
1.0000000
43
1.0000000
50
0.0000000
0
INSERT
8
0
2
d2_41
10
612.7700000
20
852.2500000
41
1.0000000
42
1.0000000
43
1.0000000
50
0.0000000
0
TEXT
8
Top_Silk
10
604.6787500
20
852.0112500
40
2.0320000
1
X14
50
0.0
7
STANDARD
71
0
72
0
0
ENDBLK
0
BLOCK
2
X15
8
0
70
0
10
0.0000000
20
0.0000000
0
INSERT
8
0
2
CON_SER_3966_5_2020
10
0.0000000
20
0.0000000
41
1.0000000
42
1.0000000
43
1.0000000
50
0.0000000
0
INSERT
8
0
2
1024
10
585.4700000
20
842.0100000
41
1.0000000
42
1.0000000
43
1.0000000
50
270.0000000
0
INSERT
8
0
2
1017
10
585.4700000
20
834.0852000
41
1.0000000
42
1.0000000
43
1.0000000
50
270.0000000
0
INSERT
8
0
2
1019
10
585.4700000
20
830.1228000
41
1.0000000
42
1.0000000
43
1.0000000
50
270.0000000
0
INSERT
8
0
2
1022
10
585.4700000
20
826.1628000
41
1.0000000
42
1.0000000
43
1.0000000
50
270.0000000
0
INSERT
8
0
2
101
10
585.4700000
20
838.0476000
41
1.0000000
42
1.0000000
43
1.0000000
50
270.0000000
0
TEXT
8
Top_Silk
10
581.5329900
20
832.0246400
40
2.0320000
1
X15
50
90.0
7
STANDARD
71
0
72
0
0
ENDBLK
0
ENDSEC
0
SECTION
2
ENTITIES
0
INSERT
8
0
2
_Default_via1
10
451.0000000
20
782.5000000
41
1.0000000
42
1.0000000
43
1.0000000
50
0.0000000
0
INSERT
8
0
2
_Default_via11
10
452.8820000
20
816.6100000
41
1.0000000
42
1.0000000
43
1.0000000
50
0.0000000
0
INSERT
8
0
2
_Default_via14
10
451.3580000
20
819.1500000
41
1.0000000
42
1.0000000
43
1.0000000
50
0.0000000
0
INSERT
8
0
2
_Default_via6
10
471.4240000
20
801.3700000
41
1.0000000
42
1.0000000
43
1.0000000
50
0.0000000
0
INSERT
8
0
2
_Default_via11
10
565.1500000
20
803.1480000
41
1.0000000
42
1.0000000
43
1.0000000
50
0.0000000
0
INSERT
8
0
2
_Default_via22
10
591.0580000
20
806.4500000
41
1.0000000
42
1.0000000
43
1.0000000
50
0.0000000
0
INSERT
8
0
2
R126
10
0.0000000
20
0.0000000
41
1.0000000
42
1.0000000
43
1.0000000
50
0.0000000
0
INSERT
8
0
2
_Default_via1
10
449.5000000
20
782.5000000
41
1.0000000
42
1.0000000
43
1.0000000
50
0.0000000
0
INSERT
8
0
2
_Default_via11
10
457.7080000
20
813.8160000
41
1.0000000
42
1.0000000
43
1.0000000
50
0.0000000
0
INSERT
8
0
2
_Default_via11
10
495.5540000
20
812.8000000
41
1.0000000
42
1.0000000
43
1.0000000
50
0.0000000
0
INSERT
8
0
2
_Default_via14
10
495.5540000
20
820.1660000
41
1.0000000
42
1.0000000
43
1.0000000
50
0.0000000
0
INSERT
8
0
2
_Default_via16
10
540.2580000
20
802.3860000
41
1.0000000
42
1.0000000
43
1.0000000
50
0.0000000
0
INSERT
8
0
2
X7
10
0.0000000
20
0.0000000
41
1.0000000
42
1.0000000
43
1.0000000
50
0.0000000
0
INSERT
8
0
2
SW2
10
0.0000000
20
0.0000000
41
1.0000000
42
1.0000000
43
1.0000000
50
0.0000000
0
INSERT
8
0
2
J13
10
0.0000000
20
0.0000000
41
1.0000000
42
1.0000000
43
1.0000000
50
0.0000000
0
INSERT
8
0
2
X8
10
0.0000000
20
0.0000000
41
1.0000000
42
1.0000000
43
1.0000000
50
0.0000000
0
INSERT
8
0
2
J10
10
0.0000000
20
0.0000000
41
1.0000000
42
1.0000000
43
1.0000000
50
0.0000000
0
INSERT
8
0
2
X12
10
0.0000000
20
0.0000000
41
1.0000000
42
1.0000000
43
1.0000000
50
0.0000000
0
INSERT
8
0
2
J12
10
0.0000000
20
0.0000000
41
1.0000000
42
1.0000000
43
1.0000000
50
0.0000000
0
INSERT
8
0
2
J5
10
0.0000000
20
0.0000000
41
1.0000000
42
1.0000000
43
1.0000000
50
0.0000000
0
INSERT
8
0
2
J7
10
0.0000000
20
0.0000000
41
1.0000000
42
1.0000000
43
1.0000000
50
0.0000000
0
INSERT
8
0
2
J21
10
0.0000000
20
0.0000000
41
1.0000000
42
1.0000000
43
1.0000000
50
0.0000000
0
INSERT
8
0
2
J1
10
0.0000000
20
0.0000000
41
1.0000000
42
1.0000000
43
1.0000000
50
0.0000000
0
INSERT
8
0
2
X13
10
0.0000000
20
0.0000000
41
1.0000000
42
1.0000000
43
1.0000000
50
0.0000000
0
INSERT
8
0
2
X3
10
0.0000000
20
0.0000000
41
1.0000000
42
1.0000000
43
1.0000000
50
0.0000000
0
INSERT
8
0
2
X11
10
0.0000000
20
0.0000000
41
1.0000000
42
1.0000000
43
1.0000000
50
0.0000000
0
INSERT
8
0
2
J24
10
0.0000000
20
0.0000000
41
1.0000000
42
1.0000000
43
1.0000000
50
0.0000000
0
INSERT
8
0
2
J25
10
0.0000000
20
0.0000000
41
1.0000000
42
1.0000000
43
1.0000000
50
0.0000000
0
INSERT
8
0
2
X4
10
0.0000000
20
0.0000000
41
1.0000000
42
1.0000000
43
1.0000000
50
0.0000000
0
INSERT
8
0
2
J14
10
0.0000000
20
0.0000000
41
1.0000000
42
1.0000000
43
1.0000000
50
0.0000000
0
INSERT
8
0
2
J9
10
0.0000000
20
0.0000000
41
1.0000000
42
1.0000000
43
1.0000000
50
0.0000000
0
INSERT
8
0
2
J4
10
0.0000000
20
0.0000000
41
1.0000000
42
1.0000000
43
1.0000000
50
0.0000000
0
INSERT
8
0
2
J6
10
0.0000000
20
0.0000000
41
1.0000000
42
1.0000000
43
1.0000000
50
0.0000000
0
INSERT
8
0
2
J18
10
0.0000000
20
0.0000000
41
1.0000000
42
1.0000000
43
1.0000000
50
0.0000000
0
INSERT
8
0
2
J23
10
0.0000000
20
0.0000000
41
1.0000000
42
1.0000000
43
1.0000000
50
0.0000000
0
INSERT
8
0
2
R127
10
0.0000000
20
0.0000000
41
1.0000000
42
1.0000000
43
1.0000000
50
0.0000000
0
INSERT
8
0
2
R125
10
0.0000000
20
0.0000000
41
1.0000000
42
1.0000000
43
1.0000000
50
0.0000000
0
INSERT
8
0
2
J15
10
0.0000000
20
0.0000000
41
1.0000000
42
1.0000000
43
1.0000000
50
0.0000000
0
INSERT
8
0
2
J16
10
0.0000000
20
0.0000000
41
1.0000000
42
1.0000000
43
1.0000000
50
0.0000000
0
INSERT
8
0
2
SW1
10
0.0000000
20
0.0000000
41
1.0000000
42
1.0000000
43
1.0000000
50
0.0000000
0
INSERT
8
0
2
X6
10
0.0000000
20
0.0000000
41
1.0000000
42
1.0000000
43
1.0000000
50
0.0000000
0
INSERT
8
0
2
X9
10
0.0000000
20
0.0000000
41
1.0000000
42
1.0000000
43
1.0000000
50
0.0000000
0
INSERT
8
0
2
J19
10
0.0000000
20
0.0000000
41
1.0000000
42
1.0000000
43
1.0000000
50
0.0000000
0
INSERT
8
0
2
J3
10
0.0000000
20
0.0000000
41
1.0000000
42
1.0000000
43
1.0000000
50
0.0000000
0
INSERT
8
0
2
X2
10
0.0000000
20
0.0000000
41
1.0000000
42
1.0000000
43
1.0000000
50
0.0000000
0
INSERT
8
0
2
X5
10
0.0000000
20
0.0000000
41
1.0000000
42
1.0000000
43
1.0000000
50
0.0000000
0
INSERT
8
0
2
X1
10
0.0000000
20
0.0000000
41
1.0000000
42
1.0000000
43
1.0000000
50
0.0000000
0
INSERT
8
0
2
X10
10
0.0000000
20
0.0000000
41
1.0000000
42
1.0000000
43
1.0000000
50
0.0000000
0
INSERT
8
0
2
J17
10
0.0000000
20
0.0000000
41
1.0000000
42
1.0000000
43
1.0000000
50
0.0000000
0
INSERT
8
0
2
J11
10
0.0000000
20
0.0000000
41
1.0000000
42
1.0000000
43
1.0000000
50
0.0000000
0
INSERT
8
0
2
J20
10
0.0000000
20
0.0000000
41
1.0000000
42
1.0000000
43
1.0000000
50
0.0000000
0
INSERT
8
0
2
J22
10
0.0000000
20
0.0000000
41
1.0000000
42
1.0000000
43
1.0000000
50
0.0000000
0
INSERT
8
0
2
J2
10
0.0000000
20
0.0000000
41
1.0000000
42
1.0000000
43
1.0000000
50
0.0000000
0
INSERT
8
0
2
J8
10
0.0000000
20
0.0000000
41
1.0000000
42
1.0000000
43
1.0000000
50
0.0000000
0
INSERT
8
0
2
U1
10
0.0000000
20
0.0000000
41
1.0000000
42
1.0000000
43
1.0000000
50
0.0000000
0
INSERT
8
0
2
X14
10
0.0000000
20
0.0000000
41
1.0000000
42
1.0000000
43
1.0000000
50
0.0000000
0
INSERT
8
0
2
X15
10
0.0000000
20
0.0000000
41
1.0000000
42
1.0000000
43
1.0000000
50
0.0000000
0
LINE
8
Top_Silk
6
CONTINUOUS
10
395.5000000
20
867.9000000
11
395.5000000
21
867.6000000
0
LINE
8
Top_Silk
6
CONTINUOUS
10
427.6000000
20
867.0000000
11
427.6000000
21
868.1000000
0
LINE
8
Top_Silk
6
CONTINUOUS
10
431.0000000
20
868.0000000
11
427.6000000
21
867.0000000
0
LINE
8
Top_Silk
6
CONTINUOUS
10
427.6000000
20
867.0000000
11
431.0000000
21
866.1000000
0
LINE
8
Top_Silk
6
CONTINUOUS
10
466.5000000
20
846.5000000
11
466.5000000
21
852.9000000
0
LINE
8
Top_Silk
6
CONTINUOUS
10
466.5000000
20
868.3000000
11
466.5000000
21
868.4000000
0
LINE
8
Top_Silk
6
CONTINUOUS
10
469.9000000
20
868.0000000
11
466.5000000
21
867.0000000
0
LINE
8
Top_Silk
6
CONTINUOUS
10
466.5000000
20
867.0000000
11
469.9000000
21
866.1000000
0
LINE
8
Top_Silk
6
CONTINUOUS
10
519.1000000
20
767.0000000
11
522.5000000
21
768.0000000
0
LINE
8
Top_Silk
6
CONTINUOUS
10
522.5000000
20
768.0000000
11
519.1000000
21
768.9000000
0
LINE
8
Top_Silk
6
CONTINUOUS
10
519.1000000
20
866.0000000
11
522.5000000
21
867.0000000
0
LINE
8
Top_Silk
6
CONTINUOUS
10
522.5000000
20
867.0000000
11
519.1000000
21
867.9000000
0
LINE
8
Top_Silk
6
CONTINUOUS
10
599.0000000
20
769.0000000
11
595.6000000
21
768.0000000
0
LINE
8
Top_Silk
6
CONTINUOUS
10
595.6000000
20
768.0000000
11
599.0000000
21
767.1000000
0
LINE
8
Top_Silk
6
CONTINUOUS
10
612.0000000
20
772.0000000
11
615.4000000
21
773.0000000
0
LINE
8
Top_Silk
6
CONTINUOUS
10
615.4000000
20
773.0000000
11
612.0000000
21
773.9000000
0
LINE
8
Top_Silk
6
CONTINUOUS
10
622.8000000
20
774.0000000
11
619.4000000
21
773.0000000
0
LINE
8
Top_Silk
6
CONTINUOUS
10
619.4000000
20
773.0000000
11
622.8000000
21
772.1000000
0
LINE
8
Top_Silk
6
CONTINUOUS
10
625.0000000
20
783.9000000
11
626.0000000
21
780.5000000
0
LINE
8
Top_Silk
6
CONTINUOUS
10
626.0000000
20
780.5000000
11
626.9000000
21
783.9000000
0
LINE
8
Top_Silk
6
CONTINUOUS
10
625.0000000
20
843.9000000
11
626.0000000
21
840.5000000
0
LINE
8
Top_Silk
6
CONTINUOUS
10
626.0000000
20
840.5000000
11
626.9000000
21
843.9000000
0
LINE
8
Top_Silk
6
CONTINUOUS
10
627.0000000
20
856.9000000
11
626.0000000
21
860.3000000
0
LINE
8
Top_Silk
6
CONTINUOUS
10
626.0000000
20
860.3000000
11
625.1000000
21
856.9000000
0
LINE
8
Top_Silk
6
CONTINUOUS
10
633.0000000
20
783.8000000
11
634.0000000
21
780.4000000
0
LINE
8
Top_Silk
6
CONTINUOUS
10
634.0000000
20
780.4000000
11
634.9000000
21
783.8000000
0
LINE
8
Top_Silk
6
CONTINUOUS
10
635.0000000
20
856.9000000
11
634.0000000
21
860.3000000
0
LINE
8
Top_Silk
6
CONTINUOUS
10
634.0000000
20
860.3000000
11
633.1000000
21
856.9000000
0
LINE
8
Top_Silk
6
CONTINUOUS
10
395.5000000
20
860.4000000
11
395.5000000
21
868.3000000
0
LINE
8
Top_Silk
6
CONTINUOUS
10
406.5000000
20
790.4000000
11
406.5000000
21
772.4000000
0
LINE
8
Top_Silk
6
CONTINUOUS
10
466.5000000
20
860.6000000
11
466.5000000
21
868.3000000
0
LINE
8
Top_Silk
6
CONTINUOUS
10
522.5000000
20
784.4000000
11
522.5000000
21
766.0000000
0
LINE
8
Top_Silk
6
CONTINUOUS
10
522.5000000
20
840.4000000
11
522.5000000
21
850.0000000
0
LINE
8
Top_Silk
6
CONTINUOUS
10
577.5000000
20
859.5000000
11
577.5000000
21
868.5000000
0
LINE
8
Top_Silk
6
CONTINUOUS
10
595.5000000
20
795.0000000
11
595.5000000
21
783.8000000
0
LINE
8
Top_Silk
6
CONTINUOUS
10
595.5000000
20
783.8000000
11
595.5000000
21
766.6000000
0
LINE
8
Top_Silk
6
CONTINUOUS
10
615.5000000
20
792.6000000
11
615.5000000
21
781.3000000
0
LINE
8
Top_Silk
6
CONTINUOUS
10
615.5000000
20
781.3000000
11
615.5000000
21
770.1000000
0
LINE
8
Top_Silk
6
CONTINUOUS
10
619.5000000
20
860.4000000
11
619.5000000
21
868.6000000
0
LINE
8
Top_Silk
6
CONTINUOUS
10
627.0000000
20
797.1000000
11
626.0000000
21
800.5000000
0
LINE
8
Top_Silk
6
CONTINUOUS
10
626.0000000
20
800.5000000
11
625.1000000
21
797.1000000
0
LINE
8
Top_Silk
6
CONTINUOUS
10
395.6000000
20
780.4000000
11
395.6000000
21
759.9000000
0
LINE
8
Top_Silk
6
CONTINUOUS
10
395.5000000
20
780.4000000
11
395.5000000
21
860.5000000
0
LINE
8
Top_Silk
6
CONTINUOUS
10
427.6000000
20
846.5000000
11
427.6000000
21
867.0000000
0
LINE
8
Top_Silk
6
CONTINUOUS
10
466.5000000
20
852.9000000
11
466.5000000
21
860.6000000
0
LINE
8
Top_Silk
6
CONTINUOUS
10
522.5000000
20
850.0000000
11
522.5000000
21
869.1000000
0
LINE
8
Top_Silk
6
CONTINUOUS
10
577.5000000
20
846.5000000
11
577.5000000
21
859.5000000
0
LINE
8
Top_Silk
6
CONTINUOUS
10
595.5000000
20
800.5000000
11
595.5000000
21
795.0000000
0
LINE
8
Top_Silk
6
CONTINUOUS
10
615.5000000
20
800.4000000
11
615.5000000
21
792.6000000
0
LINE
8
Top_Silk
6
CONTINUOUS
10
619.5000000
20
780.4000000
11
619.5000000
21
760.0000000
0
LINE
8
Top_Silk
6
CONTINUOUS
10
619.5000000
20
860.4000000
11
619.4000000
21
780.4000000
0
LINE
8
Top_Silk
6
CONTINUOUS
10
626.0000000
20
800.5000000
11
626.0000000
21
780.6000000
0
LINE
8
Top_Silk
6
CONTINUOUS
10
626.0000000
20
840.5000000
11
626.0000000
21
860.4000000
0
LINE
8
Top_Silk
6
CONTINUOUS
10
634.0000000
20
830.8000000
11
634.0000000
21
860.3000000
0
LINE
8
Top_Silk
6
CONTINUOUS
10
634.0000000
20
780.5000000
11
634.0000000
21
830.8000000
0
LINE
8
Top_Silk
6
CONTINUOUS
10
399.0000000
20
769.0000000
11
395.6000000
21
768.0000000
0
LINE
8
Top_Silk
6
CONTINUOUS
10
395.6000000
20
768.0000000
11
399.0000000
21
767.1000000
0
LINE
8
Top_Silk
6
CONTINUOUS
10
399.0000000
20
775.0000000
11
395.6000000
21
774.0000000
0
LINE
8
Top_Silk
6
CONTINUOUS
10
395.6000000
20
774.0000000
11
399.0000000
21
773.1000000
0
LINE
8
Top_Silk
6
CONTINUOUS
10
399.0000000
20
868.0000000
11
395.6000000
21
867.0000000
0
LINE
8
Top_Silk
6
CONTINUOUS
10
395.6000000
20
867.0000000
11
399.0000000
21
866.1000000
0
LINE
8
Top_Silk
6
CONTINUOUS
10
403.1000000
20
773.0000000
11
406.5000000
21
774.0000000
0
LINE
8
Top_Silk
6
CONTINUOUS
10
406.5000000
20
774.0000000
11
403.1000000
21
774.9000000
0
LINE
8
Top_Silk
6
CONTINUOUS
10
424.1000000
20
866.0000000
11
427.5000000
21
867.0000000
0
LINE
8
Top_Silk
6
CONTINUOUS
10
427.5000000
20
867.0000000
11
424.1000000
21
867.9000000
0
LINE
8
Top_Silk
6
CONTINUOUS
10
443.1000000
20
867.0000000
11
453.1000000
21
867.0000000
0
LINE
8
Top_Silk
6
CONTINUOUS
10
463.0000000
20
866.0000000
11
466.4000000
21
867.0000000
0
LINE
8
Top_Silk
6
CONTINUOUS
10
466.4000000
20
867.0000000
11
463.0000000
21
867.9000000
0
LINE
8
Top_Silk
6
CONTINUOUS
10
466.5000000
20
867.0000000
11
485.9000000
21
867.0000000
0
TEXT
8
Top_Silk
10
505.8822900
20
762.4833400
40
2.0320000
1
224mm
50
0.0
7
STANDARD
71
0
72
0
0
LINE
8
Top_Silk
6
CONTINUOUS
10
580.9000000
20
868.0000000
11
577.5000000
21
867.0000000
0
LINE
8
Top_Silk
6
CONTINUOUS
10
577.5000000
20
867.0000000
11
580.9000000
21
866.1000000
0
LINE
8
Top_Silk
6
CONTINUOUS
10
616.1000000
20
767.0000000
11
619.5000000
21
768.0000000
0
LINE
8
Top_Silk
6
CONTINUOUS
10
619.5000000
20
768.0000000
11
616.1000000
21
768.9000000
0
LINE
8
Top_Silk
6
CONTINUOUS
10
619.5000000
20
780.4000000
11
635.6000000
21
780.4000000
0
LINE
8
Top_Silk
6
CONTINUOUS
10
615.5000000
20
800.5000000
11
627.3000000
21
800.5000000
0
LINE
8
Top_Silk
6
CONTINUOUS
10
615.5000000
20
840.5000000
11
627.4000000
21
840.5000000
0
LINE
8
Top_Silk
6
CONTINUOUS
10
619.4000000
20
860.4000000
11
635.5000000
21
860.4000000
0
LINE
8
Top_Silk
6
CONTINUOUS
10
616.1000000
20
866.0000000
11
619.5000000
21
867.0000000
0
LINE
8
Top_Silk
6
CONTINUOUS
10
619.5000000
20
867.0000000
11
616.1000000
21
867.9000000
0
LINE
8
Top_Silk
6
CONTINUOUS
10
399.0000000
20
763.0000000
11
395.6000000
21
762.0000000
0
LINE
8
Top_Silk
6
CONTINUOUS
10
395.6000000
20
762.0000000
11
399.0000000
21
761.1000000
0
TEXT
8
Top_Silk
10
406.8083400
20
866.7833400
40
2.0320000
1
32mm
50
0.0
7
STANDARD
71
0
72
0
0
TEXT
8
Top_Silk
10
440.2083400
20
867.1833400
40
2.0320000
1
39mm
50
0.0
7
STANDARD
71
0
72
0
0
TEXT
8
Top_Silk
10
603.0666700
20
773.2833400
40
2.0320000
1
4mm
50
0.0
7
STANDARD
71
0
72
0
0
TEXT
8
Top_Silk
10
601.8083400
20
768.0833400
40
2.0320000
1
24mm
50
0.0
7
STANDARD
71
0
72
0
0
TEXT
8
Top_Silk
10
589.2535400
20
852.5933400
40
2.0320000
1
USB
50
0.0
7
STANDARD
71
0
72
0
0
TEXT
8
Top_Silk
10
593.0083400
20
867.1833400
40
2.0320000
1
42mm
50
0.0
7
STANDARD
71
0
72
0
0
LINE
8
Top_Silk
6
CONTINUOUS
10
616.0000000
20
761.0000000
11
619.4000000
21
762.0000000
0
LINE
8
Top_Silk
6
CONTINUOUS
10
619.4000000
20
762.0000000
11
616.0000000
21
762.9000000
0
TEXT
8
Top_Silk
10
625.7166500
20
844.9083400
40
2.0320000
1
20mm
50
90.0
7
STANDARD
71
0
72
0
0
TEXT
8
Top_Silk
10
625.7166500
20
785.6083400
40
2.0320000
1
20mm
50
90.0
7
STANDARD
71
0
72
0
0
TEXT
8
Top_Silk
10
633.6166500
20
817.1083400
40
2.0320000
1
80mm
50
90.0
7
STANDARD
71
0
72
0
0
LINE
8
Top_Silk
6
CONTINUOUS
10
395.6000000
20
768.0000000
11
466.9000000
21
768.0000000
0
LINE
8
Top_Silk
6
CONTINUOUS
10
395.6000000
20
774.0000000
11
406.5000000
21
774.0000000
0
LINE
8
Top_Silk
6
CONTINUOUS
10
395.5000000
20
867.0000000
11
427.6000000
21
867.0000000
0
LINE
8
Top_Silk
6
CONTINUOUS
10
427.7000000
20
867.0000000
11
443.1000000
21
867.0000000
0
LINE
8
Top_Silk
6
CONTINUOUS
10
453.1000000
20
867.0000000
11
466.4000000
21
867.0000000
0
LINE
8
Top_Silk
6
CONTINUOUS
10
485.9000000
20
867.0000000
11
498.0000000
21
867.0000000
0
LINE
8
Top_Silk
6
CONTINUOUS
10
619.2000000
20
768.0000000
11
595.6000000
21
768.0000000
0
LINE
8
Top_Silk
6
CONTINUOUS
10
624.1000000
20
773.0000000
11
602.2000000
21
773.0000000
0
LINE
8
Top_Silk
6
CONTINUOUS
10
577.5000000
20
867.0000000
11
619.5000000
21
867.0000000
0
LINE
8
Top_Silk
6
CONTINUOUS
10
395.6000000
20
762.0000000
11
425.5000000
21
762.0000000
0
LINE
8
Top_Silk
6
CONTINUOUS
10
425.5000000
20
762.0000000
11
480.1000000
21
762.0000000
0
TEXT
8
Top_Silk
10
396.0083400
20
775.0833400
40
2.0320000
1
11mm
50
0.0
7
STANDARD
71
0
72
0
0
TEXT
8
Top_Silk
10
452.9822900
20
768.4833400
40
2.0320000
1
127mm
50
0.0
7
STANDARD
71
0
72
0
0
TEXT
8
Top_Silk
10
485.6083400
20
866.9833400
40
2.0320000
1
56mm
50
0.0
7
STANDARD
71
0
72
0
0
LINE
8
Top_Silk
6
CONTINUOUS
10
514.5000000
20
762.0000000
11
619.4000000
21
762.0000000
0
LINE
8
Top_Silk
6
CONTINUOUS
10
466.9000000
20
768.0000000
11
522.3000000
21
768.0000000
0
LINE
8
Top_Silk
6
CONTINUOUS
10
498.0000000
20
867.0000000
11
522.5000000
21
867.0000000
0
LINE
8
Top_Silk
6
CONTINUOUS
10
480.1000000
20
762.0000000
11
514.5000000
21
762.0000000
0
LINE
8
Top_Silk
6
CONTINUOUS
10
619.3000000
20
780.4000000
11
395.5000000
21
780.4000000
0
LINE
8
Top_Silk
6
CONTINUOUS
10
395.4000000
20
860.4000000
11
619.3000000
21
860.4000000
0
ENDSEC
0
EOF
